Give Kudos?
Are you sure you want to give kudos to whelanmj?

Add To Songbook?
Are you sure you want to add this song to your songbook?


2,722 bands | 35,151 songs
Search: Register FREE! | Login
Browse Songs:
Browse Bands:
Tool Panel
Discuss This Song

1 2 3 4 5



Bruce Robison - Drivin' All Night Long (Intro)
Submitter: whelanmj (0) on 8/26/02 1 comment
Month Views: 5 | Total Views: 2,331
Moderator: Daniel_W_Tarleton_Texan | Report This Song?
Song Tools

Comment

Songbook

Kudos

Show Chords

Print

This lick is used as the intro and played several times throughout the song, as well as 
simple variations on it.

E----------------0-----------0h2-----------------------------------------------------3--------2-
B------------3------3-------------------3------------------------------3----------------------3-
G--------2---------------2-----------------2p0--------------------0h2-----2-------------------2-
D-----0-------------------------------------------4p2----------0---------------0--------------0-
A--------------------------------------------------------------------------------------------------
E------------------------------------------------------------3-------------------------------------

There are several other licks played at the end of song lines, which I am
working on.They all basically revolve around fingerpicking variations on a
standard first position D chord.

Here's what I have (I will add as I figure out more):

Verse 2:

A place that someone once called home:

--------------------
--3---3p0-----------
--2---2p0-----------
-----------4--2--0--
--------------------
--------------------

For the chords, check out Cowpie's resources at Roughstock.  Other than the
main lines, the acoustic just provides rhythm to the song, and you can get away
with fingerpicking the chords.  I'll give the solo a shot when i get a chance.

 Comments (click here to add a non-facebook comment)

-whelanmj | 8/26/2002
Home | FAQs | Privacy | Terms | Advertise | Contact
Top 100 Tab Sites