Give Kudos?
Are you sure you want to give kudos to slyce476?

Add To Songbook?
Are you sure you want to add this song to your songbook?


2,722 bands | 35,147 songs
Search: Register FREE! | Login
Browse Songs:
Browse Bands:
Tool Panel
Discuss This Song

1 2 3 4 5



Bruce Robison - Rayne, Louisiana (Tab)
Album: Wrapped (1998)
Submitter: slyce476 (0) on 7/13/02
Month Views: 8 | Total Views: 5,811
Moderator: Daniel_W_Tarleton_Texan | Report This Song?
Song Tools

Comment

Songbook

Kudos

Show Chords

Print

	This is how Rayne, Louisiana really goes. The intro is not correct but it should 
	steer you in the right direction.


e------0--------0-------0----0
B------0----------0----------0
G---------------------3---2--1
D----------------------------2
A----------------------------2
E----0----0-2-2-----2-3---2--0

e----------0--------0-------0----0
B----------0----------0----------0    repeats 2x
G-------------------------3---2--1
D--------------------------------2     with minor variations
A--------------------------------2
E-0-0-0--0----0-2-2-----2-3---2--0

	Then there's a little lick something like this
e------------------------
B------------------------
G------------------------
D------------------------
A------2h4p2-------------
E--2-4-------4-2-0-------

	And then Strum

e_--0-0-0-0-0-0----x-x-x-x----x-x----x-x----0-  
B---0-0-0-0-0-0----x-x-x-x----x-x----x-x----0-
G---1-1-1-1-1-1----2-2-2-2----4-4----2-2----1-	 2x
D---2-2-2-2-2-2----2-2-2-2----5-5----4-4----2-
A---2-2-2-2-2-2----x-x-x-x----5-5----4-4----2-
E---0-0-0-0-0-0----2-2-2-2----3-3----2-2----0-

Verse

   d        d                d        d      d d u u d
e--0--------x----------------x--------x------0-0-0-0-0--
B--0--------x----------------x--------x------0-0-0-0-0--
G--1--------2--strum once----4--------2------1-1-1-1-1--
D--2--------4----for each ---5--------4------2-2-2-2-2-- 4x
A--2--------4-----chord------5--------4------2---2---2--
E--0--------2----------------3--------2------0---2---0--

 So Long Rayne Louisiana,   Never see me no More.

 Hundred dollars seven days in the slammer,
 I'd rather hit the road.
 Well, I found That I'm Goin Crazy, everyday here the same.
 I'm Bound to head for the city where nobody knows my name.

CHORUS
		Strum Chords
  F#m   G#m     A    Am
e-2------4------5-----0--
B-2------4------5-----1--
G-2------4------6-----2--
D-4------6------7-----2--
A-4------6------7-----0--
E-2------4------5-----x--

 F#m                 G#m                      A
How Many Days Can i walk this road from the levee to the farm,

 F#m                           G#m
wake up in the morning in the same old place,

      A                   Am (Hold chord)     
only leaving is ?????? of Go--oo--one

e_--0-0-0-0-0-0----x-x-x-x----x-0---x-0--0-  
B---0-0-0-0-0-0----x-x-x-x----x-----x----0-
G---1-1-1-1-1-1----2-2-2-2----3-----2----1-	 2x
D---2-2-2-2-2-2----2-2-2-2---------------2-
A---2-2-2-2-2-2----x-x-x-x---------------2-
E---0-0-0-0-0-0----2-2-2-2----3-----2----0-
 
		Sorry bout some incorrect lyrics
			 i'm doin from memory

Verse 2

So Long old new orleanes, nothin but a waste of time
hot nights down by the water took me my last dime
and i count the waves in the water just ike an old drunk bum
deep down mississippi river wheres it all come from

Chorus 2

and how many days can i spend in the shadows hiding from the sun
waitin for the night to spend your money on a point that never co-oom--omes

(same guitar as before but 4x instead of 2)

Verse 3 

and so long new york city my dreams are dead and gone
no heart and no damn pitty for a man thats come so far
one time before i'm leavin i'm gonna roll them die
it comes in i got no worrys i lose i lose my life

Chorus 3

but how many days can i spend in black concrete and cars
no heart and no damn ??????? for a man thats come so faaaar--r-ar--r
 Comments (click here to add a non-facebook comment)
Home | FAQs | Privacy | Terms | Advertise | Contact
Top 100 Tab Sites