Give Kudos?
Are you sure you want to give kudos to lmofle?

Add To Songbook?
Are you sure you want to add this song to your songbook?


2,696 bands | 34,981 songs
Search: Register FREE! | Login
Browse Songs:
Browse Bands:
Tool Panel
Discuss This Song

1 2 3 4 5





Bruce Robison - Wrapped (Intro)
Album: Wrapped (1998)
Submitter: lmofle (616) on 7/6/02
Month Views: 8 | Total Views: 3,158
Moderator: Daniel_W_Tarleton_Texan | Report This Song?
Song Tools

Comment

Songbook

Kudos

Show Chords

Print

Wrapped Intro
By Bruce Robison

    
e---------0-------------0-------------0-------------0--1/2-1-2---|
b-----------3-------------3-------------3------2-3-----------3---|
G-------0-----0-------0-----0-------0-----0------------2/3-2-2---|
D-----2---------2---0---------0---2---------2--2-2--2--------0---|
A---3-------------2-------------0--------------------------------|
E----------------------------------------------------------------|

Steel guitar breaks in---I tried to get it for guitar:

e----------------------|
b--5/7b-7b-7b-7-5/3----|
G-------------------4--|
D----------------------|
A----------------------|
E----------------------|




 Comments (click here to add a non-facebook comment)
Home | FAQs | Privacy | Terms | Advertise | Contact
Top 100 Tab Sites