Give Kudos?
Are you sure you want to give kudos to Niki?

Add To Songbook?
Are you sure you want to add this song to your songbook?


2,753 bands | 35,353 songs
Search: Register FREE! | Login
Browse Songs:
Browse Bands:
Tool Panel
Discuss This Song

1 2 3 4 5



Carl Perkins - Movie Magg (Lead)
Submitter: Niki (0) on 2/1/15
Month Views: 18 | Total Views: 1,922
Moderator: cowboybobo87 | Report This Song?
Song Tools

Comment

Songbook

Kudos

Show Chords

Print

                Author/Artist: Carl Perkins 
                Title: Movie Magg 




key of E


intro
---0-1-2-2-2-4-2----4-------0-----0---------------------
-4----------------------------0-------------------------
-----------------/4---4-2-1-----1-----------------------
--------------------------------------------------------
--------------------------------------------------------
--------------------------------------------------------




solo

-6-7-9-7----------------------------------------------------------------------------
---------10-9-10-9-7-----5-7-5-----------7----7-7-9-7-10/9-7---------------7-8-9----
---------------------5/6-------6----9-10---10----------------8/7---6-7-8-9----------
---------------------------------7-------------------------------9------------------
------------------------------------------------------------------------------------
------------------------------------------------------------------------------------
                                                                              

-12-9-----------10-9--------------8-8/9-----------11-10-9-----------------14/16-12----16-12---
------12-9----9------12-9----9-10-9-9/10-10/11-12-12-11-10-10-10-11/12-14----------14---------
-----------12-------------12-------------11/12-13----------11-11-12/13------------------------
----------------------------------------------------------------------------------------------
----------------------------------------------------------------------------------------------
----------------------------------------------------------------------------------------------
                                                                              

                                                                              


 Comments (click here to add a non-facebook comment)
Home | FAQs | Privacy | Terms | Advertise | Contact
Top 100 Tab Sites