Give Kudos?
Are you sure you want to give kudos to Koichi Kondo?

Add To Songbook?
Are you sure you want to add this song to your songbook?


2,768 bands | 35,503 songs
Search: Register FREE! | Login
Browse Songs:
Browse Bands:
Tool Panel
Discuss This Song

1 2 3 4 5



Carlene Carter - Every Little Thing (Chord)
Album: Little Love Letters (1993)
Submitter: Koichi Kondo (200) on 3/25/11 2 comments
Month Views: 15 | Total Views: 12,026
Moderator: Ray Terry | Report This Song?
Song Tools

Comment

Songbook

Kudos

Show Chords

Print

Every Little Thing
Written by Carlene Carter & Al Anderson
Recorded by Carlene Carter
Album: Little Love Letters (1993 & 2010)

(Capo on 2)

Intro.:  (G) x 8 bars

E -3-3-3-3-3-3-3-3-| x 4 bars  |-----------------|  x 4 bars
B -0-0-0-0-0-0-0-0-|           |-----------------|
G -0-0-0-0-0-0-0-0-|           |---------------0-|
D -0-0-0-0-0-0-0-0-|           |---------0-0-2---|
A -2-2-2-2-2-2-2-2-|           |-----2-2---------|
E -3-3-3-3-3-3-3-3-|           |-3-3-------------|


(G)I hear songs on the radio, they (D)might be fast or they might be slow
But every song they play's got me thinkin' 'bout (G)you
I see a fella walkin' down the street, he (D)looks at me and he smiles so sweet
But he don't matter to me, 'cause I'm thinkin' 'bout (G)you

(Chorus)
Every little (C)dream I dream about you, every little (G)thought I think about you
(D)Drives me crazy when you go away, I oughta keep you locked up at (G)home
Like a (C)wild horse I wanna break you, I (G)love you so much I hate you
Every little (D)thing reminds me of you, honey, when you leave me here all a-(G)lone

My (G)tongue gets tied when I try to talk, my (D)knees get weak when I start to walk
So, might as well stay home and keep thinkin' 'bout (G)you
"The Young and the Restless" on my TV set, it's (D)just like us when we first met
And when they start to kissin', got me thinkin' bout (G)you

(Chorus)
Every little (C)dream I dream about you, every little (G)thought I think about you
(D)Drives me crazy when you go away, I oughta keep you locked up at (G)home
Like a (C)wild horse I wanna break you, I (G)love you so much I hate you
Every little (D)thing reminds me of you, honey, when you leave me here all a-(G)lone

Inst.:  | (A) | (A) | (E) | (E) | (E) | (E) | (A) | (A) |
        | (A) | (A) | (E) | (E) | (G) | (D) | (A) | (A) |

e ---0-0-----0-0---|---0-0-0-0-0-0---|-----------------|-----------------|
B -2-------2-----2-|-2-------------3-|---0-0-----0-0-0-|---0-0-0---0-0---|
G -----------------|-----------------|---------2-------|---------------2-|
D -----------------|-----------------|-2---------------|-2---------------|
A -----------------|-----------------|-----------------|-----------------|
E -----------------|-----------------|-----------------|-----------------|

e -----------------|-----------------|-----------------|-----------------|
B ---0-0-----0-0-0-|---0-0-0---2-0---|-----------------|-----------------|
G ---------2-------|-2-------------2-|-2---2-----2-----|-2-2-2-2---2-----|
D -2---------------|-----------------|-------------4-2-|-------------4-2-|
A -----------------|-----------------|-----------------|-----------------|
E -----------------|-----------------|-----------------|-----------------|

e ---0-0-----0-0-0-|---0-0-0---0-0---|-----------------|-----------------|
B ---------3-------|-3-------------2-|---0-0-----0-0-0-|---0-0-0---0-0---|
G -2---------------|-----------------|---------2-------|-2---------------|
D -----------------|-----------------|-2---------------|-----------------|
A -----------------|-----------------|-----------------|-----------------|
E -----------------|-----------------|-----------------|-----------------|

e -----------------|-----------------|-----------------|-----------------|
B -----------------|-----------------|-----------------|-----------------|
G -0-0-0-----------|-----------------|-----2-----2---2-|-2---------------|
D -------4---2---0-|-0-0-0-----------|-----------------|-----------------|
A -----------------|-------4---2---0-|-0---------------|-----------------|
E -----------------|-----------------|-----------------|-----------------|

(Chorus)
Every little (D)dream I dream about you, every little (A)thought I think about you
You (E)drives me crazy when you go away, I oughta keep you locked up at (A)home
Like a (D)wild horse I wanna break you, I (A)love you so much I hate you
Every little (E)thing reminds me of you, honey, when you leave me here all a-(A)lone

(Tag)
Every little (E)thing reminds me of you, honey, when you leave me here all a-(A)lone
Every little (E)thing reminds me of you, honey, leave me here all alone

Outro.:  | (G) | (G) | (D) | (D) Oh oh (A)oh, hey
 
 Comments (click here to add a non-facebook comment)
Hi!

Do you have tabs for the solo part?
-danijohansen@gmail.com | 3/26/2011
Hoooh!
-Koichi Kondo | 3/27/2011
Home | FAQs | Privacy | Terms | Advertise | Contact
Top 100 Tab Sites