Give Kudos?
Are you sure you want to give kudos to taylor7458?

Add To Songbook?
Are you sure you want to add this song to your songbook?


2,719 bands | 35,141 songs
Search: Register FREE! | Login
Browse Songs:
Browse Bands:
Tool Panel
Discuss This Song

1 2 3 4 5



Casey Donahew Band - Love Me Right (Solo)
Submitter: taylor7458 (1) on 4/17/11
Month Views: 12 | Total Views: 5,218
Moderator: txmusicplyr | Report This Song?
Song Tools

Comment

Songbook

Kudos

Show Chords

Print

Casey Donahew Band
Love Me Right

Intro:  F#   B   C#m   F#  (X3)
-----2-----2-------------------------------------------------8-7---------------8-7----------------
---------------------------5br--5-2---2-------------------7b----------------7b--------------------
--4-----4-----4br2h4--4-------------4---4-24b--4-2---------------4-5-6------------4-5-6----------
----------------------------------------------------4-2-----------4-5-6--4---------4-5-6-4--------
--------------------------------------------------------------------------------------------------
--------------------------------------------------------------------------------------------------
Solo after first chorus
---7br77br--57br-5--------------------------------------8-7---------------8-7-----
----------------------5-2---2--------------------------7--8-7-------------7-8-7-------
--------------------------4---4-2---2------------------6-------4-5-6--4---6-----4-5-6---------
----------------------------------4---2h4-2h4-2h4-2h4----------4-5-6--4---------4-5-6-4--------
--------------------------------------------------------------------------------------
--------------------------------------------------------------------------------------
Solo after second chorus
-----------------------------------------------------------14--------------------------------------
--17b--17--14---------------------------------------14-17b----17-14----14------------713b-12b-----
--------------16-14--16-14--16br 14h16p14--------16-----------------16----16-14------612b-11b-----
------------------------------------------14-------------------------------------------------------
---------------------------------------------------------------------------------16----------------
---------------------------------------------------------------------------------------------------

-----------------------------------|---------------------------------------------------------------
--------------7-13b-12b------------|---------------------------------------------------------------
--4-5-6-------612b-11b--4-5-6-----|--------------------------------------------------------------
--4-5-6--4---------------4-5-6--4--|---------------------------------------------------------------
-----------------------------------|---------------------------------------------------------------
-----------------------------------|---------------------------------------------------------------
 Comments (click here to add a non-facebook comment)
Home | FAQs | Privacy | Terms | Advertise | Contact
Top 100 Tab Sites