Give Kudos?
Are you sure you want to give kudos to taylor7458?

Add To Songbook?
Are you sure you want to add this song to your songbook?


2,719 bands | 35,141 songs
Search: Register FREE! | Login
Browse Songs:
Browse Bands:
Tool Panel
Discuss This Song

1 2 3 4 5



Casey Donahew Band - Movin' On (Lead)
Submitter: taylor7458 (1) on 6/14/10
Month Views: 13 | Total Views: 3,702
Moderator: txmusicplyr | Report This Song?
Song Tools

Comment

Songbook

Kudos

Show Chords

Print

Casey Donahew Band
Movin On
Tabbed by Jack
Please correct if you find errors

PLEASE LEAVE KUDOS

             Main Riff
-----------|---------------------------------------
-----------|---------------------------------------
-----------|---------------------------------------
---------2-|---2---2---5p2-4-2------2---2---5p2-4--
---------2-|-0---0---0---------3b-0---0---0--------
-12\-0-0-0-|---------------------------------------


---------------------------------------------------
---------------------------------------------------
---------------------------------------------------
-2-------------------------------------------------
---3b---2---2---5p2-4-2------2---2---5p2-4-2-------
------0---0---0---------3b-0---0---0---------3b----

------------------------------------|--------------
------------------------------------|--------------
----4-4---4-----2-------------------|--------------
----4-4---4-----2---0-5p2-4-2-----2-|--------------
--2-----2-2---0---0-----------3b--2-|--------------
----------------------------------0-|--------------

Chorus
---------------------------------------------------
---------------------------------------------------
--4---2-------4--2-----4--2--------4--2------------
--4---2---2---4--2--2--4--2--2-2---4--2--2---------
--2---0---2---2--0--2--2--0--2-2---2--0--2---------
----------0---------0--------0-0---------0---------

First Solo
-3-3-3-3-3---5-5-5-5-5-----------------------------
-5b5b5b5b5b8b8b8b8b8b----------------------------
------------------------16b-16b-16b-16b-16b14p12--
---------------------------------------------------
---------------------------------------------------
---------------------------------------------------

-------------------------------------------------------
---------------15---15-------------17-15---------------
12-14-12-14/16---16-----14p12---12---------16-14----16-
------------------------------14-----------------17----
-------------------------------------------------------
-------------------------------------------------------
                 2nd Solo 
----------------|-0-0-0-0---------------------------
----------------|-5-5-5-5--5-3-0----3b-03b-0-3b-0--
-16-14p12----12-|-----------------------------------
----------14----|-----------------------------------
----------------|-----------------------------------
----------------|-----------------------------------


---------------------------------------------------
------------------------------------------12-------
-------2br-0---2/4-0--14p12----12---------12-------
-------------2--------------14----12h114---------
---------------------------------------------------
---------------------------------------------------


---------------------------------------------------
------12b-----12b----12b----15----15----15----15--
------12b-----12b----12bh14b---14b---14b---14b----
---14-----14------14-------------------------------
---------------------------------------------------
---------------------------------------------------
 Comments (click here to add a non-facebook comment)
Home | FAQs | Privacy | Terms | Advertise | Contact
Top 100 Tab Sites