Give Kudos?
Are you sure you want to give kudos to dbeaverboner?

Add To Songbook?
Are you sure you want to add this song to your songbook?


2,663 bands | 34,748 songs
Search: Register FREE! | Login
Browse Songs:
Browse Bands:
Tool Panel
Discuss This Song

1 2 3 4 5





Chris LeDoux - Cadillac Ranch (Intro)
Submitter: dbeaverboner (4) on 2/24/04 1 comment
Month Views: 16 | Total Views: 7,373
Moderator: Georgewb | Report This Song?
Song Tools

Comment

Songbook

Kudos

Show Chords

Print

Cadillac Ranch        Chris Ledoux

Intro   play with heavy distortion
e----------------------------------------------------------------------
B----------------------------------------------------------------------
G----------------------------------------------------------------------
D-----------------5p2-0h2----(four times)-----------------------------
A-----7----5----4-------------------------------4-2--------------------
E--00---00---00------------------------------00-----3-5-6-5-3-0--------
 Comments (click here to add a non-facebook comment)
good tab the very first has a
E---x--x-------------
B---x--x-------------
G---x--x-------------
D---x--x-------------
A---x--x------12/0---
E---x--x------12/0---
^ d
-bull_rider_josh | 1/2/2005
Home | FAQs | Privacy | Terms | Advertise | Contact
Top 100 Tab Sites