Give Kudos?
Are you sure you want to give kudos to rune?

Add To Songbook?
Are you sure you want to add this song to your songbook?


2,682 bands | 34,894 songs
Search: Register FREE! | Login
Browse Songs:
Browse Bands:
Tool Panel
Discuss This Song

1 2 3 4 5





Chris LeDoux - The Borderline (Tab)
Submitter: rune (16) on 4/19/10
Month Views: 22 | Total Views: 7,403
Moderator: Georgewb | Report This Song?
Song Tools

Comment

Songbook

Kudos

Show Chords

Print

Chris Ledoux - The Borderline
(Larry Hanson, Virgil Beckham, Teddy Gentry and Greg Fowler)


 Dm          C             Bb          Asus   A 
----0-1-3-5-1---0-1-0---------0-1-3-5-1----0--------
---3-3---------1--------1----3-3----------3--3-2----
--2-----------0--------0-0--3------------2----------
-0-----0-0-0----------------------------------------
-------------3---3-3--3----1-----1-1-1--0---0-0-----
----------------------------------------------------

 Dm          C              Bb   A     Dm
----0-1-3-5-1---0-1-0----------1----0--1--1p0--------
---3-3---------1--------------3----2---------1h3-----
--2-----------0--------0-----3----2-------------0h2--
-0-----0-0-0------------2p0------------0-------------
-------------3---3-3--3-----1----0---0---------------
-----------------------------------------------------


In a (Dm) cloud of dust across Texas (C) south of San Antone 
A (Bb) lawman and a cowboy (Asus) pushed their horses (A) on
(Dm) Racin' toward the Rio (C) runnin' out of time
They (Bb) had to catch the outlaws before (A) they crossed the border-(Dm)-line

Well, (Dm) the lawman wanted justice, the (C) cowboy needs revenge 
They (Bb) tracked the outlaws' horses up (Asus) to the rivers (A) edge 
And (Dm) there across the the Rio (C) a badge ain't worth a dime
The (Bb) law was in their own hands (Asus) once they (A) crossed the border-(Dm)-line

Chorus:
So they (F) ride (Bb) to the desert (C) wind
Down a dusty (F) trail (Bb) destiny (C) begins
And heros never (Bb) turn or look (C) back
They just (F) ride (Bb) through the sands of (C) time on the border-(Bb)-line (C)(Dm)

In the (Dm) saftey of the badlands the (C) outlaws stop their run
The (Bb) campfire rings with laughter of the (Asus) evil things they'd (A) done 
How they'd (Dm) taken all they wanted and they (C) killed the cowboy's wife
They (Bb) knew no one would follow them (Asus)(A) across the border-(Dm)-line

Now the (Dm) lawman and the cowboy (C) stepped out of the dark
Though it was (Bb) two agsinst the twenty every (Asus) bullet found its (A) mark 
And (Dm) so goes the legend that (C) out there in the night 
The (Bb) two still ride together (Asus) somewhere (A) beyond the border-(Dm)-line


CHORUS X 2
 
 Comments (click here to add a non-facebook comment)
Home | FAQs | Privacy | Terms | Advertise | Contact
Top 100 Tab Sites