Give Kudos?
Are you sure you want to give kudos to joshdraper?

Add To Songbook?
Are you sure you want to add this song to your songbook?


2,630 bands | 34,427 songs
Search: Register FREE! | Login
Browse Songs:
Browse Bands:
Tool Panel
Discuss This Song

1 2 3 4 5





Clay Walker - Dreaming With My Eyes Wide Open (Intro)
Album: Clay Walker (1993)
Submitter: joshdraper (1) on 9/22/08 1 comment
Month Views: 32 | Total Views: 6,873
Moderator: jhempel24 | Report This Song?
Song Tools

Comment

Songbook

Kudos

Show Chords

Print

Dreaming with My Eyes Open, 
Clay Walker (Tony Arata)

key of F#

guitar tuned down 1/2 step (Eb) for tab parts

intro1 (guitar alone)
    G        C    G                    F          C                        G
e-|-3--------3----3--------------------1-1--------------------3---3--------3-|
B-|-3--------3----3--------------------1-1---1----------------3/5-3--------3-|
G-|-0--------0----0--0-b(3)2-0---------2-0h2-0-0------5-------------4/2-0--0-|
D-|-0--------2----0------------b(3)2-0-3-------3------5--------------------0-|
A-|-2----0-2-3----2--------------------3----------3/7---75-3--------------2-|
E-|-3--3----------3--------------------------------------------------------3-|


intro2
         G            C    G       F     C      G
e-|------3------------3----3--------------------3---------------------------|
B-|------3------------3----3--------1-----1-----3---------------------------|
G-|------0------------0----0---------2-----0----0---b(3)2-0-----------------|
D-|------0------------2----0----------3-----2---0-----------b(3)2-0---------|
A-|------2--------0-2-3----2-------------3------2-------------------1/0-----|
E-|-0-2-3-------3----------3-------1------------3-----------------------3---|
Posted by Josh Draper
Not Transcribed by me
 Comments (click here to add a non-facebook comment)
Nice tab! I've been trying to figure it out for a long time. Thanks for getting around to my request. Keep it up, partner!
-rubber | 10/6/2008
Home | FAQs | Privacy | Terms | Advertise | Contact
Top 100 Tab Sites