Give Kudos?
Are you sure you want to give kudos to rune?

Add To Songbook?
Are you sure you want to add this song to your songbook?


2,635 bands | 34,497 songs
Search: Register FREE! | Login
Browse Songs:
Browse Bands:
Tool Panel
Discuss This Song

1 2 3 4 5





Clay Walker - Hypnotize The Moon (Intro)
Album: Hypnotize the Moon (1995)
Submitter: rune (27) on 4/3/02
Month Views: 33 | Total Views: 7,306
Moderator: jhempel24 | Report This Song?
Song Tools

Comment

Songbook

Kudos

Show Chords

Print

Clay Walker
Hypnotize The Moon

Intro
e--------------------------------|
B--------------------------------|
G--------------------------------|
D--3-2-5-3---2-3-5-7--5-8-7--3---|
A--------------------------------|
E--------------------------------|

Solo
e----------------------------------------------------------|
B----------------------------------------------------------|
G----------------------------------------------------------|
D--3--3-2-0----0-1s2-0--------0-2-3--2s3-2-0-1s2--2-0------|
A----------3--3--------------------------------------3-/5--|
E---------------------3-3----------------------------------|
 Comments (click here to add a non-facebook comment)
Home | FAQs | Privacy | Terms | Advertise | Contact
Top 100 Tab Sites