Give Kudos?
Are you sure you want to give kudos to axehappy?

Add To Songbook?
Are you sure you want to add this song to your songbook?


2,635 bands | 34,497 songs
Search: Register FREE! | Login
Browse Songs:
Browse Bands:
Tool Panel
Discuss This Song

1 2 3 4 5





Clay Walker - Money Ain't Everything (Lead)
Album: If I Could Make A Living (1994)
Submitter: axehappy (137) on 2/5/02
Month Views: 24 | Total Views: 3,127
Moderator: jhempel24 | Report This Song?
Song Tools

Comment

Songbook

Kudos

Show Chords

Print

Clay Walker - Money Ain't Everything (lead fills)

By axehappy - axehappy at countrytabs.com

Tune low E string to D.

***********************************************************************

x  =  dead note                       pbr   =   pre-bend & release

b  =  bend                            p     =   pulloff

h  =  hammer-on                       \     =   slide down

***********************************************************************


End of intro (lets go to Louisiana boys...)

   rake

E-----13---------------|
B----x--15-13----------|
G---x------------------|
D--x---------14pbr-12--|
A----------------------|
E----------------------|


In 1st verse (after 'in the brim of his dirty old cowboy hat')

E------------|
B------------|
G--5---------|
D---3b-------|
A-----5p3h5--|
D------------|



End of 1st chorus

   rake

E-----13--------------------|
B----x--15-13-12------------|
G---x-----------14----------|
D--x--------------14pbr-12--|
A---------------------------|
D---------------------------|



In verse 3 (after 'the stranger who saved her life that spring')


E-------------|
B-------------|
G-------------|
D--------3p0--|
A-----3-0-----|
D--4h5--------|


End of verse 3


E-----------------|
B--3----3----3----|
G--0h2--0h2--0h2--|
D--0----0----0----|
A-----------------|
D-----------------|



Instrumental at end of song (1st lead fill)


E---------|
B-----6---|
G--5h7-7--|
D---------|
A---------|
D---------|


Instrumental at end of song (2nd lead fill)


E-----8b----------------------|
B----x--8pbr-6----------------|
G---x---------7\5-------------|
D--x-------------7\5-3-3h5p3--|
A-----------------------------|
D-----------------------------|


Instrumental at end of song (3rd lead fill) (repeat to fade)


E-------------------------------------------------5-7-8----|
B---3-3-3--3----6b-3--3-3-3--3----3-----3-3-3---8b-----6b--|
G---2-4-5--2-4-2------2-4-5--2-4-2------2-4-5--------------|
D--0-----------------0-------------3b--0-------0-----------|
A----------------------------------------------------------|
D----------------------------------------------------------|
 Comments (click here to add a non-facebook comment)
Home | FAQs | Privacy | Terms | Advertise | Contact
Top 100 Tab Sites