Give Kudos?
Are you sure you want to give kudos to WildCard76?

Add To Songbook?
Are you sure you want to add this song to your songbook?


2,620 bands | 34,365 songs
Search: Register FREE! | Login
Browse Songs:
Browse Bands:
Tool Panel
Discuss This Song

1 2 3 4 5





Clint Black - Live And Learn (Intro)
Album: Killin' Time (1990)
Submitter: WildCard76 (294) on 11/10/03
Month Views: 22 | Total Views: 2,790
Moderator: Ray Terry | Report This Song?
Song Tools

Comment

Songbook

Kudos

Show Chords

Print


LIVE AND LEARN
Clint Black

Capo 2nd Fret

   
    (Am)               


E---------3--0------------------3--0-----------------
B-----------------1p0---0h1-------------1p0---0h1----
G------2-------2------2-----2--------2------2--------
D----------------------------------------------------
A----0------------------------0----------------------
E----------------------------------------------------


   (E)                     (Am)

E------------0--------------------3--0---------------
B--------0-----0------0------------------1p0---0h1---
G------1---------1--1----------2-------2-----2-------
D----2------------------2----------------------------
A---------------------------0------------------------
E--0-------------------------------------------------



Note: Larry did an excellent job on the Chords, 
so I thought that I would add this. Play along 
with the album to get the timing down.
 Comments (click here to add a non-facebook comment)
Home | FAQs | Privacy | Terms | Advertise | Contact
Top 100 Tab Sites