Give Kudos?
Are you sure you want to give kudos to rune?

Add To Songbook?
Are you sure you want to add this song to your songbook?


2,761 bands | 35,450 songs
Search: Register FREE! | Login
Browse Songs:
Browse Bands:
Tool Panel
Discuss This Song

1 2 3 4 5



Clint Eastwood - The Good, The Bad & The Ugly (Lead)
Submitter: rune (3) on 8/5/02
Month Views: 4 | Total Views: 8,915
Help! We need a moderator for this artist. | Report This Song?
Song Tools

Comment

Songbook

Kudos

Show Chords

Print

The Good, The Bad and The Ugly
From The Clint Eastwood Movie.

This "song" is a legend.. The guitarpart is really cool!! (maybe not as cool as the "whoa whoa whoa"s but..)
It's played two times, around 45 sec and 2 min.
The (x) can be played to get a brighter tone


e----------------------------------------------------|
B--------(7)--------(7)--------(7)--(8)--(9)----(12)-|
G---------7----------7----------7----8----9------12--|
D--9-7-9-7----9-7-9-7----9-7-9-7---10---11-----------|
A----------------------------------------------------|
E----------------------------------------------------|

e----------------------------------------
B-----(7)-------(7)-------(7)-------(7)--
G------7---------7---------7---------7---
D-9p7h9---7-9p7h9---7-9p7h9---7-9p7h9----
A----------------------------------------
E----------------------------------------

e------------------------------------------------------------|
B------------------------------------------------------------|
G------------------------------------------------------------|
D--7-9p7h9p7-9-7--8p6h8p6-8-6--7p5h7p5-7-5--6p4h6-5-3-0------|
A----------------------------------------------------------1-|
E------------------------------------------------------------|
 Comments (click here to add a non-facebook comment)
Home | FAQs | Privacy | Terms | Advertise | Contact
Top 100 Tab Sites