Give Kudos?
Are you sure you want to give kudos to naoki?

Add To Songbook?
Are you sure you want to add this song to your songbook?


2,761 bands | 35,450 songs
Search: Register FREE! | Login
Browse Songs:
Browse Bands:
Tool Panel
Discuss This Song

1 2 3 4 5



Clint Eastwood - Unforgiven (soundtrack) (Tab)
Submitter: naoki (0) on 5/26/04 1 comment
Month Views: 4 | Total Views: 21,466
Help! We need a moderator for this artist. | Report This Song?
Song Tools

Comment

Songbook

Kudos

Show Chords

Print

e-------------7--------
B-9--9--10------10--
G----------------------
D----------------------
A----------------------
E----------------------

e-----------7--9----------------
B|--10--10--------12--10--9--9
G--------------------------------
D--------------------------------
A--------------------------------
E---------------------------------

e-------------7--------
B-9--9--10------10--
G----------------------
D----------------------
A----------------------
E----------------------

e------------7--12--11------11--9------7--10--
B--10--10--------------12---------10----------9
G-------------------------------------------------
D-------------------------------------------------
A------------------------------------------------
E------------------------------------------------

Bridge:
e-----------------------------
B-7--9--10--10--7--5--4--
G----------------------------
D----------------------------
A----------------------------
E----------------------------

e--------------------------
B--5-7--9--9--5--4--2--
G-------------------------
D-------------------------
A-------------------------
E-------------------------

e-----------------------------
B-7--9--10--10--7--5--4--
G----------------------------
D----------------------------
A----------------------------
E----------------------------

e--------------------------
B-4--5-7-----------------
G----------6--4----------
D-------------------------
A-------------------------
E-------------------------
 Comments (click here to add a non-facebook comment)
I really love this song, i hope this tab helps ;)
-naoki | 5/26/2004
Home | FAQs | Privacy | Terms | Advertise | Contact
Top 100 Tab Sites