Give Kudos?
Are you sure you want to give kudos to guitarviper?

Add To Songbook?
Are you sure you want to add this song to your songbook?


2,750 bands | 35,315 songs
Search: Register FREE! | Login
Browse Songs:
Browse Bands:
Tool Panel
Discuss This Song

1 2 3 4 5



Collin Raye - I Can Still Feel You (Intro)
Album: The Walls Came Down (1998)
Submitter: guitarviper (4) on 2/10/03
Month Views: 12 | Total Views: 3,989
Moderator: mo_freestyle | Report This Song?
Song Tools

Comment

Songbook

Kudos

Show Chords

Print

I Can Still Feel You - Intro
Collin Raye
Tabbed by Guitarviper

Intro:
--16-16-16\12-12-12---------------------------------------------------------------------------
--17-17-17\12-12-12-17-17-17/19-17------------------------------------------------------------
--------------------16-16-16/18-16-----------------------------12-14-14h15-15-15-15p14-12-----
-----------------------------------17b-17bh-17rp15p12----12-15----------------------------15--
------------------------------------------------------15--------------------------------------
----------------------------------------------------------------------------------------------

----------------------------
----------------------------
------------9-11-11/13-11v--
-------9-11-----------------
--9/11----------------------
----------------------------
 Comments (click here to add a non-facebook comment)
Home | FAQs | Privacy | Terms | Advertise | Contact
Top 100 Tab Sites