Give Kudos?
Are you sure you want to give kudos to DaveWH?

Add To Songbook?
Are you sure you want to add this song to your songbook?


3,023 bands | 36,984 songs
Search: Register FREE! | Login
Browse Songs:
Browse Bands:
Tool Panel
Discuss This Song

1 2 3 4 5



Commander Cody - Hot Rod Lincoln (Intro)
Submitter: DaveWH (4) on 1/11/03 1 comment
Month Views: 921 | Total Views: 26,369
Help! We need a moderator for this artist. | Report This Song?
Song Tools

Comment

Songbook

Kudos

Show Chords

Print

Hot Rod Lincoln 

  by Commander Cody


----|---------------------------------|---------------------------------|
----|---------------------------------|---------------------------------|
----|---------------------------------|---------------------------------|
----|---------------------------------|---------2-2-4-2-5-2-4-5-4-2-----|
----|---------2-2-4-2-5-2-4-5-4-2-----|-0-0-3-4---------------------3-4-|
-2b-|-0-0-3-4---------------------3-4-|---------------------------------|

 *
|---------------------------------|----------------|
|---------------------------------|----------------|
|---------------------------------|----------------|
|---------4-4-6-4-7-4-6-7-6-4-----|-22---2---2---2-|
|-----5-6---------------------5-6-|----4---4---4---|
|-7-7-----------------------------|----------------|



* this could also be played :  I find the above way easier since its pattern
is very similar to the first two measures.


|---------------------------------|
|---------------------------------|
|-------------1---2---1-2-1-------|
|-----0-1-4-4---4---4-------4-0-1-|
|-2-2-----------------------------|
|---------------------------------|
 Comments (click here to add a non-facebook comment)
Out of all the variations on this website, this is the only one that is absolutely correct. Great job!!
-Rmcwil | 2/18/2011
Home | FAQs | Privacy | Terms | Advertise | Contact
Top 100 Tab Sites