Give Kudos?
Are you sure you want to give kudos to RBrockus?

Add To Songbook?
Are you sure you want to add this song to your songbook?


2,751 bands | 35,342 songs
Search: Register FREE! | Login
Browse Songs:
Browse Bands:
Tool Panel
Discuss This Song

1 2 3 4 5



Confederate Railroad - Queen Of Memphis (Bass)
Submitter: RBrockus (2) on 5/24/02
Month Views: 21 | Total Views: 9,750
Moderator: Georgewb | Report This Song?
Song Tools

Comment

Songbook

Kudos

Show Chords

Print

Queen Of Memphis


INTRO:
  C                 G                 D
G|--------|--------|--------|--------|--------|--------|
D|--------|--------|5-------|5-------|--------|--------|
A|3-------|3-------|----5---|----5---|5-------|5-------|
E|----3---|----3---|--------|--------|----5---|----5---|

  G                                                    
G|--------|--------|
D|5-------|5-3-----|
A|----5---|----53--|
E|--------|------6-|


VERSE:
  G                                   C                
G|--------|--------|--------|--------|--------|--------|
D|--------|5-------|5-------|5-------|--------|--------|
A|----5---|----5---|----5---|----0-2-|3-------|3-------|
E|3-------|--------|--------|--------|----3---|----3---|

           G                 Bm                C      
G|--------|--------|--------|--------|--------|--------|
D|--------|--------|5-------|--------|--------|--------|
A|3-3-2-0-|----5---|----5---|2-------|2-------|3-------|
E|--------|3-------|--------|----2---|----2---|----3---|

           D                          G                         
G|--------|--------|--------|--------|--------|--------|
D|--------|--------|--------|--------|-----2--|5-------|
A|3-------|5-------|5-------|5-------|--2-5-5-|--------|
E|----3---|----5---|----5---|--0-1-2-|3-------|--------|


CHORUS:
  D        C        G                 Em       D       
G|------4-|------2-|--------|--------|--------|--------|
D|--4-7---|--2-5---|--------|5-2-----|--------|--------|
A|5-------|3-------|--2-5-2-|----5-2-|7-7-7-7-|5-5-5-5-|
E|--------|--------|3-------|--------|--------|--------|

  C                 D        C        G        C       
G|--------|5-2-----|------4-|------2-|--------|--------|
D|--2-5-2-|----5-2-|--4-7---|--2-5---|--------|--------|
A|3-------|--------|5-------|3-------|--0-1-2-|3-------|
E|--------|--------|--------|--------|3-------|--0-1-2-|

  G        D        G                                  
G|--------|--------|--------|--------|
D|--------|--4-7-4-|-----2--|5-------|
A|--2-5-2-|5-------|--2-5-5-|--------|
E|3-------|--------|3-------|--------|


BREAK:
  C                 G                 D
G|--------|--------|--------|--------|--------|--------|
D|--------|--------|5-------|5-------|--------|--------|
A|3-------|3-------|----5---|----5---|5-------|5-------|
E|----3---|----3---|--------|--------|----5---|----5---|

  G                                                    
G|--------|--------|
D|5-------|5-3-----|
A|----5---|----53--|
E|--------|------6-|


VERSE:
  G                                   C                
G|--------|--------|--------|--------|--------|--------|
D|--------|5-------|5-------|5-------|--------|--------|
A|----5---|----5---|----5---|----0-2-|3-------|3-------|
E|3-------|--------|--------|--------|----3---|----3---|

           G                 Bm                C      
G|--------|--------|--------|--------|--------|--------|
D|--------|--------|5-------|--------|--------|--------|
A|3-3-2-0-|----5---|----5---|2-------|2-------|3-------|
E|--------|3-------|--------|----2---|----2---|----3---|

           D                          G                         
G|--------|--------|--------|--------|--------|--------|
D|--------|--------|--------|--------|-----2--|5-------|
A|3-------|5-------|5-------|5-------|--2-5-5-|--------|
E|----3---|----5---|----5---|--0-1-2-|3-------|--------|


CHORUS:
  D        C        G                 Em       D       
G|------4-|------2-|--------|--------|--------|--------|
D|--4-7---|--2-5---|--------|5-2-----|--------|--------|
A|5-------|3-------|--2-5-2-|----5-2-|7-7-7-7-|5-5-5-5-|
E|--------|--------|3-------|--------|--------|--------|

  C                 D        C        G        C       
G|--------|5-2-----|------4-|------2-|--------|--------|
D|--2-5-2-|----5-2-|--4-7---|--2-5---|--------|--------|
A|3-------|--------|5-------|3-------|--0-1-2-|3-------|
E|--------|--------|--------|--------|3-------|--0-1-2-|

  G        D        G                                  
G|--------|--------|--------|--------|
D|--------|--4-7-4-|-----2--|5---5-4-|
A|--2-5-2-|5-------|--2-5-5-|--------|
E|3-------|--------|3-------|--------|


BRIDGE:
  Em                G                 Em               
G|--------|--------|--------|--------|--------|--------|
D|2-------|2-------|5-------|5---5-4-|2-------|2-------|
A|----2---|----2---|----5---|--------|----2---|----2---|
E|--------|--------|--------|--------|--------|--------|

  C        D                                           
G|------2-|-----4--|7-------|
D|--2-5---|--4-7-7-|--------|
A|3-------|5-------|--------|
E|--------|--------|--------|


CHORUS:
  D        C        G                 Em       D       
G|------4-|------2-|--------|--------|--------|--------|
D|--4-7---|--2-5---|--------|5-2-----|--------|--------|
A|5-------|3-------|--2-5-2-|----5-2-|7-7-7-7-|5-5-5-5-|
E|--------|--------|3-------|--------|--------|--------|

  C                 D        C        G        C       
G|--------|5-2-----|------4-|------2-|--------|--------|
D|--2-5-2-|----5-2-|--4-7---|--2-5---|--------|--2-5-2-|
A|3-------|--------|5-------|3-------|--0-1-2-|3-------|
E|--------|--------|--------|--------|3-------|--------|

  G        D        G        C        G        D       
G|--------|--------|--------|--------|--------|--------|
D|--------|--4-7-4-|--------|--2-5-2-|--------|--4-7-4-|
A|--2-5-2-|5-------|--0-1-2-|3-------|--2-5-2-|5-------|
E|3-------|--------|3-------|--------|3-------|--------|


  G                                                    
G|--------|--------|
D|-----2--|5-------|
A|--2-5-5-|--------|
E|3-------|--------|


ENDING:
  C                 G                 D
G|--------|--------|--------|--------|--------|--------|
D|--------|--------|5-------|5-------|--------|--------|
A|3-------|3-------|----5---|----5---|5-------|5-------|
E|----3---|----3---|--------|--------|----5---|----5---|

  G                                                    
G|--------|--------|
D|5-3-----|--------|
A|----53--|--------|
E|------6-|3-------|


 Comments (click here to add a non-facebook comment)
Home | FAQs | Privacy | Terms | Advertise | Contact
Top 100 Tab Sites