Give Kudos?
Are you sure you want to give kudos to saleen9899?

Add To Songbook?
Are you sure you want to add this song to your songbook?


2,732 bands | 35,199 songs
Search: Register FREE! | Login
Browse Songs:
Browse Bands:
Tool Panel
Discuss This Song

1 2 3 4 5



Craig Morgan - What I Love About Sundays (Intro)
Album: My Kind of Livin' (2005)
Submitter: saleen9899 (1) on 11/2/05
Month Views: 14 | Total Views: 3,942
Moderator: mo_freestyle | Report This Song?
Song Tools

Comment

Songbook

Kudos

Show Chords

Print

-3--------------------------0--------------------------0--
-3------1/3-1/3-1p0---------0--------------------------0--
-0----0-2/4-2/4-2p0--------0----0-0h2p0-------0-2h3p0-0---
-0-0h2-0------------2-0-0h2--0h2-0-----2-0-0h2------------
-2--------------------------------------------------------
-3--------------------------------------------------------

---------------------0---0-0-0-3--
------1/3------------1---1-1-1-3--
----0-2/4-5-4-2-0----0---0-0-0-0--
-0h2-0-----------2-0-0h2-2-2-2-0--
---------------------3---3-3-3-2--
-------------------------------3--
 Comments (click here to add a non-facebook comment)
Home | FAQs | Privacy | Terms | Advertise | Contact
Top 100 Tab Sites