Give Kudos?
Are you sure you want to give kudos to dbeaverboner?

Add To Songbook?
Are you sure you want to add this song to your songbook?


2,708 bands | 35,063 songs
Search: Register FREE! | Login
Browse Songs:
Browse Bands:
Tool Panel
Discuss This Song

1 2 3 4 5



Cross Canadian Ragweed - 17 #2 (Solo)
Album: Cross Canadian Ragweed (2002)
Submitter: dbeaverboner (3) on 4/6/04
Month Views: 16 | Total Views: 5,793
Moderator: Ray Terry | Report This Song?
Song Tools

Comment

Songbook

Kudos

Show Chords

Print

There is nothing wrong with CrossCanadianJB's tab for this one, but this
version might be a little more complete and readable.  Have fun!

Solo
E--------------------------------------------------------------
B----------------0---------------------------------------------
G-/5--4--2-------4---------------/7--5--4-------0-0------------
D----------2h4h5---5\4-2-0-5-0------------2h4h5-----4-4-0-0-0--
A--------------------------------------------------------------
E--------------------------------------------------------------

E--------------------------------------------------------------
B--8---7---5---3---3---3---3---3-----------------3-----3-------
G--7---7---7---5---5---4---2---0-------------0---2(4)--0-------
D----------------------------------------0h2---2--b------------
A--------------------------------------------------------------
E--------------------------------------------------------------

E------------------------------------3-------------------------
B--------3--------------3---3--------3--3---3------------------
G------0---0------------0---2(4)~~-----(4)2-0------------------
D--0-2-------0------0h2---2--bh---------pbr--------------------
A--------------------------------------------------------------
E--------------------------------------------------------------
 Comments (click here to add a non-facebook comment)
Home | FAQs | Privacy | Terms | Advertise | Contact
Top 100 Tab Sites