Give Kudos?
Are you sure you want to give kudos to tcarpenter06?

Add To Songbook?
Are you sure you want to add this song to your songbook?


2,722 bands | 35,147 songs
Search: Register FREE! | Login
Browse Songs:
Browse Bands:
Tool Panel
Discuss This Song

1 2 3 4 5



Cross Canadian Ragweed - Alabama2(solo) (Solo)
Album: Highway 377 (2004)
Submitter: tcarpenter06 (0) on 1/11/05 3 comments
Month Views: 4 | Total Views: 6,932
Moderator: Ray Terry | Report This Song?
Song Tools

Comment

Songbook

Kudos

Show Chords

Print

Alabama solo

There was a little part I screwed up on the first time....should be right now.

This is the way Cody plays it on the Soul Gravy CD. He plays it a little differently every time.

br-bend and release
pbr- prebend & release (bend before you hit the string and then release)


e------------------------7--------------------------------------------I
B---------------------------------------------------------------------I
G--------------7------9br---9pbr--7-----------------------------------I
D--------7--9----9-9------------------9p7---7h9-7---------------------I
A----/9-----------------------------------9--------9s7--5----57s9----I
E---------------------------------------------------------7-----------I
			
e-----------------------------107-7\--------------------------10-----I
B----------7-8-10--88h7b10-----------/8-8-8h7-----------------------I
G-----7h9----------------------------------------9-7-9br-7---7--------I
D7h9------------------------------------------------------9----------I
A--------------------------------------------------------------------I
E---------------------------------------------------------------------I

e---------------------------------------------------10-9-7------------I
B----------------------------------------------------------10-88-7---I
G7-9br-9-9-9p7------------------------------7------------------------I
D--------------7h9-7------------------7-7h9--------------------------I
A--------------------9s7--5---57s9----------------------------------I
E----------------------------7----------------------------------------I

e---------------------------------------------------------------------I
B---------------------------------------------------------------------I
G-9br-7--9br-7--------------------------------7-9br-7-----------------I
D-------------9p7---7h9-7-----------7-7-7h9--------------------------I
A-----------------9-------9s7-57s9----------------------------------I
E---------------------------------------------------------------------I





 Comments (click here to add a non-facebook comment)
good tab...cudos
-alexwest | 3/2/2005
I had a little part wrong at the beginning of the third row. But its right now.
-tcarpenter06 | 3/3/2005
how do you have an 8h7?
-andymh | 11/5/2005
Home | FAQs | Privacy | Terms | Advertise | Contact
Top 100 Tab Sites