Give Kudos?
Are you sure you want to give kudos to BrianEarlHaines?

Add To Songbook?
Are you sure you want to add this song to your songbook?


2,711 bands | 35,094 songs
Search: Register FREE! | Login
Browse Songs:
Browse Bands:
Tool Panel
Discuss This Song

1 2 3 4 5



Cross Canadian Ragweed - Anywhere But Here (Lead)
Album: Cross Canadian Ragweed (2002)
Submitter: BrianEarlHaines (27) on 9/8/08
Month Views: 15 | Total Views: 7,353
Moderator: Ray Terry | Report This Song?
Song Tools

Comment

Songbook

Kudos

Show Chords

Print

Song: Anywhere But Here
Artist: Cross Canadian Ragweed
Transcribed By: Brian Earl Haines

I saw 4 people requested the lead for this song and I wasn't sure what they 
meant by that so I did the intro which is also the main riff of the song as 
well as the breakdown part twards the end which is just the main riff an 
octave higher.


|------3--------------------|
|------3-3------------------|
|------0-2------2-----2-----|
|------0-0------2--4--2--4--|
|------x----3-2-0--0--0--0--|
|--2h3-3--------------------|

|----------------------------------------|
|------------------5------------8--------|
|------------------5------------7b8r7-5--|
|--5h7-7-5-7---5h7---7---5h7-7-----------|
|----------------------------------------|
|----------------------------------------|
 Comments (click here to add a non-facebook comment)
Home | FAQs | Privacy | Terms | Advertise | Contact
Top 100 Tab Sites