Give Kudos?
Are you sure you want to give kudos to pickerfromWACO?

Add To Songbook?
Are you sure you want to add this song to your songbook?


2,761 bands | 35,450 songs
Search: Register FREE! | Login
Browse Songs:
Browse Bands:
Tool Panel
Discuss This Song

1 2 3 4 5



Cross Canadian Ragweed - Fightin' For (Intro)
Album: Garage (2005)
Submitter: pickerfromWACO (0) on 8/22/05
Month Views: 4 | Total Views: 7,325
Moderator: Ray Terry | Report This Song?
Song Tools

Comment

Songbook

Kudos

Show Chords

Print

e-----------------------------------------------------------------
b-----2--3---3--3------------3--2-----------------3--3--3---------
g-----2--2---2--2--4br-2--2--2--3--2-----------2--2--2--2--4br-2--
d-----2--0---0--0---------2--0--0--2-----------2--0--0--0---------
a-0-0---------------------0--------0-------0---0------------------
E--------------------------------------0h2------------------------

e-------------------
b-----2--3----------
g-----2--2----------
d-----2--0----------
a-0-0-------5/4--0--
E-------------------
 Comments (click here to add a non-facebook comment)
Home | FAQs | Privacy | Terms | Advertise | Contact
Top 100 Tab Sites