Give Kudos?
Are you sure you want to give kudos to ccgcrrjp?

Add To Songbook?
Are you sure you want to add this song to your songbook?


2,761 bands | 35,450 songs
Search: Register FREE! | Login
Browse Songs:
Browse Bands:
Tool Panel
Discuss This Song

1 2 3 4 5



Cross Canadian Ragweed - Fightin' For (Tab)
Album: Garage (2005)
Submitter: ccgcrrjp (2) on 10/12/05 1 comment
Month Views: 6 | Total Views: 7,749
Moderator: Ray Terry | Report This Song?
Song Tools

Comment

Songbook

Kudos

Show Chords

Print

Cross Canadian Ragweed
Fightin' For



           A             D                    A    D
Well it's late, and you know I've been up drinkin'
   A         D                         A  D
Talkin' to myself up and down the hall
           A            D               A  D
Ain't it great, another fabulous disaster
              A    D                      A   D
Well I can't wait for the next hammer to fall


e--------------------2---
B--------------------3---
G------------2h4br2--2---
D-------2h4----------0---
A--4h5-------------------
E------------------------


(Chorus)

D                     E
You may have won this battle baby
A            A/G#     F#m
Don't mean I won't win the war
 D                       E            
And you, you don't even know what it is
                      A          
That you're fightin' for



Well it's early I know you've been up waitin'
Waitin' for me to finally call
Talkin' dirty, it ain't what you really wanted

e--------------------------
B--------------------------
G---4b---2h4pr2-----2------
D----------------4---------
A--------------------------
E--------------------------

To slam another phone up against the wall

e--------------------2---
B--------------------3---
G------------2h4br2--2---
D-------2h4----------0---
A--4h5-------------------
E------------------------


(Chorus)



(Bridge)

F#m                              A
Well think about me when you're out there honey
F#m                   A
You know sometimes I will
F#m                       A
Sometimes I feel like a broken stone
         E
Rolling down your hill


e---------------------------------
B---------------------------------
G-----------------------2--4bbr2--
D---------------2---2h4-----------
A-------2---2h4-------------------
E---2h4---------------------------


(Play Intro)


(Chorus)




I added the fills in, so I added the words/chords
so that it would make more sense.  Anywho, these
aren't the exact guitar parts that Cody plays, but
everything should sound fine.
 Comments (click here to add a non-facebook comment)
its pretty good
-Randy Polansky | 1/20/2006
Home | FAQs | Privacy | Terms | Advertise | Contact
Top 100 Tab Sites