Give Kudos?
Are you sure you want to give kudos to ccgcrrjp?

Add To Songbook?
Are you sure you want to add this song to your songbook?


2,761 bands | 35,450 songs
Search: Register FREE! | Login
Browse Songs:
Browse Bands:
Tool Panel
Discuss This Song

1 2 3 4 5



Cross Canadian Ragweed - Final Curtain (Intro)
Album: Garage (2005)
Submitter: ccgcrrjp (2) on 10/11/05 2 comments
Month Views: 6 | Total Views: 4,473
Moderator: Ray Terry | Report This Song?
Song Tools

Comment

Songbook

Kudos

Show Chords

Print

Cross Canadian Ragweed
Final Curtain



e-------------------------
B-------------------------
G-------------------------
D-------------------------
A--2/5--5-4-0h2p0---------
E-------------------------


e-------------------------
B-------------------------
G-------------------------
D---------------------2---
A--0-2--------------------
E------4-2br0--0h2p0------
 Comments (click here to add a non-facebook comment)
that tab suck dirty donkey nuts
-bigdongboy | 10/18/2005
your a f****t dongboy no one wants to to hear your s**t
-steveg2k4 | 12/28/2005
Home | FAQs | Privacy | Terms | Advertise | Contact
Top 100 Tab Sites