Give Kudos?
Are you sure you want to give kudos to axehappy?

Add To Songbook?
Are you sure you want to add this song to your songbook?


2,681 bands | 34,877 songs
Search: Register FREE! | Login
Browse Songs:
Browse Bands:
Tool Panel
Discuss This Song

1 2 3 4 5





Cyndi Thomson - I Always Liked That Best (Solo)
Submitter: axehappy (98) on 3/22/02
Month Views: 10 | Total Views: 3,861
Help! We need a moderator for this artist. | Report This Song?
Song Tools

Comment

Songbook

Kudos

Show Chords

Print

Cyndi Thomson - I Always Liked That Best (solo)

By axehappy - axehappy at countrytabs.com

***********************************************************************

/   =   slide up                             p   =   pulloff

\   =   slide down                           h   =   hammer-on

b   =   bend

***********************************************************************


E----------------------------------------11-13-11-13b-11h13-11------
B--6/8-6----4/6\4-------11-11-11h13-11h13---------------------11h13-
G-------8p7--------10/12--------------------------------------------
D-------------------------------------------------------------------
A-------------------------------------------------------------------
E-------------------------------------------------------------------


E--11----11--------------------------|
B--11h13-----------------------------|
G----------12\10-8-8h10--8-----------|
D------------------------8h10-8------|
A-----------------------------8h10---|
E------------------------------------|
 Comments (click here to add a non-facebook comment)
Home | FAQs | Privacy | Terms | Advertise | Contact
Top 100 Tab Sites