Give Kudos?
Are you sure you want to give kudos to axehappy?

Add To Songbook?
Are you sure you want to add this song to your songbook?


2,693 bands | 34,919 songs
Search: Register FREE! | Login
Browse Songs:
Browse Bands:
Tool Panel
Discuss This Song

1 2 3 4 5





Cyndi Thomson - What I Really Meant To Say (Lead)
Submitter: axehappy (60) on 3/25/02 1 comment
Month Views: 11 | Total Views: 3,968
Help! We need a moderator for this artist. | Report This Song?
Song Tools

Comment

Songbook

Kudos

Show Chords

Print

Cyndi Thomson - What I Really Meant To Say (lead)

By axehappy - axehappy at countrytabs.com

Not much in this one, but these are the main parts.
The intro doesn't sound like a guitar, but it comes across reasonably
well.

***********************************************************************

h   =   hammer-on                              /   =   slide up

p   =   pulloff

***********************************************************************


INTRO (repeat as necessary)

E-----------11--11---------------------|
B--------------------------------------|
G-----6-8/10--10--10--10-8-6-8-6-6-6---|
D--6h8----------------------8----------|
A--------------------------------------|
E--------------------------------------|



ENDING

E----------------------4----|
B----------------------6----|
G-----------6h8p6------6----|
D------4-6h8-----6h8---6----|
A-----4----------------4----|
E---------------------------|
 Comments (click here to add a non-facebook comment)
it sounds like mandolin with maybe even some effects or a little distortion
-mroadster182 | 2/9/2005
Home | FAQs | Privacy | Terms | Advertise | Contact
Top 100 Tab Sites