Give Kudos?
Are you sure you want to give kudos to rock_n_roll?

Add To Songbook?
Are you sure you want to add this song to your songbook?


2,831 bands | 36,023 songs
Search: Register FREE! | Login
Browse Songs:
Browse Bands:
Tool Panel
Discuss This Song

1 2 3 4 5



Darius Rucker - Don't Think I Don't Think About It (open) (Intro)
Album: Learn To Live (2008)
Submitter: rock_n_roll (2) on 1/12/09
Month Views: 18 | Total Views: 6,902
Sound Byte: Listen
Moderator: mo_freestyle | Report This Song?
Song Tools

Comment

Songbook

Kudos

Show Chords

Print

Tabbed by: rock_n_roll


Tuning: standard

when playing the A part pick out of this chord and its very easy

e|--x------
B|--5------  pinky
G|--2------  index
D|--0------
A|--4------  ring
E|--x------




    E        A

e|--0--0---|-----------------------0------------------------------------------|
B|--0--0---|----------5--------5---0------------------------------------------|
G|--1--1---|------2---------2------2------------------------------------------|
D|--2--2---|-------------0---------2------------------------------------------|
A|--2--2---|-3/4-------------------2------------------------------------------|
E|--0--0---|------------------------------------------------------------------|
 Comments (click here to add a non-facebook comment)
Home | FAQs | Privacy | Terms | Advertise | Contact
Top 100 Tab Sites