Give Kudos?
Are you sure you want to give kudos to segael22?

Add To Songbook?
Are you sure you want to add this song to your songbook?


2,831 bands | 36,023 songs
Search: Register FREE! | Login
Browse Songs:
Browse Bands:
Tool Panel
Discuss This Song

1 2 3 4 5



Darius Rucker - It Won't Be Like This For Long (Intro)
Album: Learn To Live (2008)
Submitter: segael22 (0) on 3/8/09
Month Views: 16 | Total Views: 6,280
Moderator: mo_freestyle | Report This Song?
Song Tools

Comment

Songbook

Kudos

Show Chords

Print

e---------------------------
B--5-4-2--------------------
G---------4-11h2p1-----1---
D-------------------4-2-----
A---------------------------
E---------------------------

e---------------------------
B--5-4-2--------------------
G---------4-11h2h1---------
D-------------------4-2-*2*-
A---------------------------
E---------------------------
                         *Could opt to replace with an E chord
                          to tie into the chord version of the
                          rest of the song
 Comments (click here to add a non-facebook comment)
Home | FAQs | Privacy | Terms | Advertise | Contact
Top 100 Tab Sites