Give Kudos?
Are you sure you want to give kudos to leviellis1504?

Add To Songbook?
Are you sure you want to add this song to your songbook?


2,831 bands | 36,009 songs
Search: Register FREE! | Login
Browse Songs:
Browse Bands:
Tool Panel
Discuss This Song

1 2 3 4 5



Darius Rucker - It Wont Be Like This (Intro)
Album: Learn To Live (2008)
Submitter: leviellis1504 (0) on 11/23/08
Month Views: 6 | Total Views: 4,844
Moderator: mo_freestyle | Report This Song?
Song Tools

Comment

Songbook

Kudos

Show Chords

Print

this is the intro for It Wont Be Like This
on the video the song doesnt start till about 1:50
if you wanna fast foward. Enjoy, let me kno if i need 
to fix anything


E---0------------------------------------------
B---4s5s4 -------------------------------------
G------------4s6 4 ----------------------------
D---------------------4s6------- 6b --4 2 4s6--   
A---------------------------7 7----------------
E---------------------------------------------0




E---0----------------------------------------0-------0
B---4s5s4 -----------------------------------0-------0
G------------4s6 4 --------------------------4-------1
D---------------------4s6------- 6b ---------4---2---2   
A---------------------------7 7--------------2-------2
E----------------------------------------------------0
 Comments (click here to add a non-facebook comment)
Home | FAQs | Privacy | Terms | Advertise | Contact
Top 100 Tab Sites