Give Kudos?
Are you sure you want to give kudos to Andrew?

Add To Songbook?
Are you sure you want to add this song to your songbook?


2,750 bands | 35,293 songs
Search: Register FREE! | Login
Browse Songs:
Browse Bands:
Tool Panel
Discuss This Song

1 2 3 4 5



Darryl Worley - Awful, Beautiful Life (Intro)
Album: Darryl Worley (2004)
Submitter: Andrew (0) on 10/9/04 3 comments
Month Views: 9 | Total Views: 6,753
Moderator: Ray Terry | Report This Song?
Song Tools

Comment

Songbook

Kudos

Show Chords

Print

First time tabber, long time member. Not the most computer savy feller going?
Get a feel for the hammer-ons and pull-offs by listening to the song, then 
start pounding the strings.




----------------------------------
----------------------------------
--------0\2---2---2/0---0----0\2--
------0-0-- 0-0-0-0---0-0-00-0----
----------------------------------
----------------------------------
     m   h  m   m  p  m   mm  h


m = palm mute
h = hammer-on
p = pull-off
 

Pretty ez stuff. sounds cool with a little overdrive and some aggressive picking.
 Comments (click here to add a non-facebook comment)
awesome, fun song to play, at the beginning i also like to deaden my strings a bit

-bwbucs23 | 1/5/2005
umm, duh. that's why he has the (m)s indicating muting your strings.
-spellbound57196 | 4/29/2005
Sounds right to me, except I think it starts with an open D string played on a dropped-down low E string. (That is, the low E string has been tuned down to D). In that case, it would go like this:
e----------------------------------
b----------------------------------
g--------0\2---2---2/0---0----0\2--
D------0-0-- 0-0-0-0---0-0-00-0----
A----------------------------------
D----0-----------------------------
m h m m p m mm h
-what_the_tele | 6/4/2008
Home | FAQs | Privacy | Terms | Advertise | Contact
Top 100 Tab Sites