Give Kudos?
Are you sure you want to give kudos to WildCard76?

Add To Songbook?
Are you sure you want to add this song to your songbook?


2,629 bands | 34,421 songs
Search: Register FREE! | Login
Browse Songs:
Browse Bands:
Tool Panel
Discuss This Song

1 2 3 4 5





David Ball - Thinkin' Problem (Solo)
Album: Thinkin' Problem (1994)
Submitter: WildCard76 (176) on 1/31/03
Month Views: 57 | Total Views: 3,886
Moderator: falgorn | Report This Song?
Song Tools

Comment

Songbook

Kudos

Show Chords

Print

THINKIN' PROBLEM
David Ball



Solo



E----------------------------------------------------------------------8---------
B---4----4----4---------------------------------------------------------------8--
G--b3------b3---b3-----b1-------------------------------------5--b7-b7---9-9-----
D--------------------3-----3/1-----1--3------------------5--7--------------------
A-------------------------------3---------3p1----1--3/7--------------------------
E----------------------------------------------3---------------------------------


E---10---------------------------------5---3-------------------------------------
B--b10---------------------------------------------------------------------------
G-----------------10--b10---------5---b5--b2----2--0-------------3----3----------
D---------12--12------------7--7----------------------b1------/5---/5---3-b1-----
A--------------------------------------------------------3--3----------------3---
E--------------------------------------------------------------------------------
 Comments (click here to add a non-facebook comment)
Home | FAQs | Privacy | Terms | Advertise | Contact
Top 100 Tab Sites