Give Kudos?
Are you sure you want to give kudos to Johnny_Cash?

Add To Songbook?
Are you sure you want to add this song to your songbook?


2,987 bands | 36,846 songs
Search: Register FREE! | Login
Browse Songs:
Browse Bands:
Tool Panel
Discuss This Song

1 2 3 4 5



David Lee Murphy - Tryin' To Get There (studio 330) (Tab)
Album: Tryin' To Get There (2004)
Submitter: Johnny_Cash (0) on 6/18/05
Month Views: 162 | Total Views: 3,405
Sound Byte: Listen
Moderator: Georgewb | Report This Song?
Song Tools

Comment

Songbook

Kudos

Show Chords

Print

TRYIN' TO GET THERE
Artist: David Lee Murphy
Writers: David Lee Murphy / Waylon Jennings
CD: Tryin' To Get There
2004, KOCH Records
Submitter: Glenn Light


Wildcard76 has done great with the chords and lyrics - 
just follow that with a few fills added by guitar 2.
I hope the soundbyte helps. 

If anyone can translate the solos that would be appreciated

Cheers Guys,

Glenn




Capo 3


Intro


Guitar 1

    G      C      Am      D
e|--3------0------0-------2---------------------|
B|--3------1------1-------3---------------------|
G|--0------0------2-------2---------------------|
D|--0------2------2-------0*--------------------|
A|--2*-----3*-----0*----------------------------|
E|--3*------------------------------------------|

*Palm mute the bottom strings in the strumming pattern


Guitar 2
        G    D       Dsus4
e|------3----2-3-2-3---3--3-2-0----------------| x2
B|------3----3-3-3-3---3---------2-------------|
G|------0----2-3-2-2---2-----------------------|
D|------0----0-0-0-0---0-----------------------|
A|------2--------------------------------------|
E|------3--------------------------------------|



Verse


Guitar 1

    G      C      Am      D
e|--3------0------0-------2------------------| x4
B|--3------1------1-------3------------------|
G|--0------0------2-------2------------------|
D|--0------2------2-------0*-----------------|
A|--2*-----3*-----0*-------------------------|
E|--3*---------------------------------------|


Guitar 2

    G     Cadd9   Am      D
e|--3------3------0-------2------------------| x3
B|--3------3------1-------3------------------|
G|--0------0------2-------2--0h2p0-----------|
D|--0------2*-----2-------0*-----------------|
A|--2*-----3*-----0*-------------------------|
E|--3*---------------------------------------|

    G    Cadd9    Am      D
e|--3------3------0-------3-3-2-0------------| x1
B|--3------3------1-------3-------2----------|
G|--0------0------2-------2------------------|
D|--0------2*-----2-------0------------------|
A|--2*-----3*-----0*-------------------------|
E|--3*---------------------------------------|


Guitar 1

     C   D        
e|---0---2------------------|  x2
B|---1---3------------------|
G|---0---2------------------|
D|---2----------------------|
A|---3----------------------|
E|--------------------------|

Guitar 2

 Cadd 9  D             Cadd9 D            G
e|---3---2-2-0-2-0-2-3---3---2-2-0-2-0-2--3----|  
B|---3---3---------------3---3------------3----|
G|---0---2---------------0---2------------0----|
D|---2-------------------2----------------0----|
A|---3-------------------3----------------2----|
E|----------------------------------------3----|


Chorus


Guitar 1


    G      C      Am      D
e|--3------0------0-------2-----------------| x3
B|--3------1------1-------3-----------------|
G|--0------0------2-------2-----------------|
D|--0------2------2-------0-----------------|
A|--2------3------0-------------------------|
E|--3---------------------------------------|


Guitar 2


    G      C      Am      D
e|--3------0------0-------2-----------------| x3
B|--3------1------1-------3-----------------|
G|--0------0------2-------2-----------------|
D|--0------2------2-------0-----------------|
A|--2------3------0-------------------------|
E|--3---------------------------------------|


Guitar 1


     C   D		
e|---0---2------------------| 
B|---1---3------------------|
G|---0---2------------------|
D|---2---0------------------|
A|---3----------------------|
E|--------------------------|


Guitar 2

     C   D		
e|---0---2-3-2-0------------| 
B|---1---3-------3----------|
G|---0---2------------------|
D|---2---0------------------|
A|---3----------------------|
E|--------------------------|




 Comments (click here to add a non-facebook comment)
Home | FAQs | Privacy | Terms | Advertise | Contact
Top 100 Tab Sites