Give Kudos?
Are you sure you want to give kudos to boxelder?

Add To Songbook?
Are you sure you want to add this song to your songbook?


2,634 bands | 34,497 songs
Search: Register FREE! | Login
Browse Songs:
Browse Bands:
Tool Panel
Discuss This Song

1 2 3 4 5





Deric Ruttan - Take The Wheel (Intro)
Album: Deric Ruttan (2003)
Submitter: boxelder (1) on 7/11/05
Month Views: 14 | Total Views: 2,466
Moderator: falgorn | Report This Song?
Song Tools

Comment

Songbook

Kudos

Show Chords

Print

Deric Ruttan - Take The Wheel INTRO

Below I have tabbed 2 different positions to play this in standard tuning.
Questions/comments/complaints email boxelder at hlinet.com



b - bend
bh - bend and hold
r - release
p - pull off
h - hammer on
x - muted 
/ - slide up
\ - slide down
~ - vibrato

Slide is done with 2nd guitar:
Let ring to 0:06
E----------
B----------
G---/7~----
D---/7~----
A----------
E----------

Version 1:

          *insert 2nd guitar w/slide
E-0-------*---------------------------------------------
B--3------3------------3-----------3-------------------
G---2-----0h2--0---0---0h2-0---0---0h2-0---0---0h2p0---
D----0----o------4---4-0-----4---4-0-----4---4------4--
A-----0------------------------------------------------
E------------------------------------------------------

   let G chord ring w/ muted A string
E----------------------------
B----------------------------
G--0----------0--------------
D--0--4--0----0--4--0--------
A--x-----x----x-----x--------
E--3--3--3----3-----3--------



Version 2:

           *insert guitar w/slide
E-0-------------------------------------------------------
B--3-------*----------------------------------------------
G---2------7----7---7---7----7---7---7-7--7---7---7---7-7-
D----0-----5h7--5p4-5p4-5h7--5p4-5p4-5h7--5p4-5p4-5h7p5-4-
A-----0---------------------------------------------------
E---------------------------------------------------------


E-------------------------
B-------------------------
G---0--0--0----0--0--0----
D---5--4--0----5--4--0----
A-------------------------
E-------------------------


 Comments (click here to add a non-facebook comment)
Home | FAQs | Privacy | Terms | Advertise | Contact
Top 100 Tab Sites