Give Kudos?
Are you sure you want to give kudos to axehappy?

Add To Songbook?
Are you sure you want to add this song to your songbook?


2,668 bands | 34,775 songs
Search: Register FREE! | Login
Browse Songs:
Browse Bands:
Tool Panel
Discuss This Song

1 2 3 4 5





Deryl Dodd - Sundown (Solo)
Submitter: axehappy (82) on 11/2/02
Month Views: 30 | Total Views: 4,594
Moderator: lmofle | Report This Song?
Song Tools

Comment

Songbook

Kudos

Show Chords

Print

Deryl Dodd  -  Sundown  (solo)

By axehappy  -  axehappy at countrytabs.com


There's some kind of effect used over this solo...I think its a tremolo pedal...
I guess you could play it without one though. :o)


**************************************************************************************************

/   =   slide up                                                b   =   bend up

\   =   slide down                                              br  =   bend & release

h   =   hammer-on                                               

**************************************************************************************************


   A                                    

E-------5-8b-5-------5-8b-5-------5-8b-5---------------------17--------17----
B--3/5-8--------3/5-8--------3/5-8------8-5-8------------17br------17br------
G--------------------------------------------9\7-5b------------14--------14--
D--------------------------------------------------7-7-----------------------
A----------------------------------------------------------------------------
E----------------------------------------------------------------------------


E----------------10h11---12---------------------------------------------|
B----------10-12b-----15b--12b-----------------8/10-8------------5------|
G--9h12-12b-------------------14---5b-----5b---------9\7-5-7-5-7b-5b----|
D------------------------------------7--5---7-----------------------7---|
A--------------------------------------7-7------------------------------|
E-----------------------------------------------------------------------|


 Comments (click here to add a non-facebook comment)
Home | FAQs | Privacy | Terms | Advertise | Contact
Top 100 Tab Sites