Give Kudos?
Are you sure you want to give kudos to axehappy?

Add To Songbook?
Are you sure you want to add this song to your songbook?


2,680 bands | 34,871 songs
Search: Register FREE! | Login
Browse Songs:
Browse Bands:
Tool Panel
Discuss This Song

1 2 3 4 5





Diamond Rio - Bubba Hyde (Intro)
Album: Love a Little Stronger (1994)
Submitter: axehappy (131) on 5/4/02
Month Views: 63 | Total Views: 6,272
Moderator: bcshuffle | Report This Song?
Song Tools

Comment

Songbook

Kudos

Show Chords

Print

Diamond Rio - Bubba Hyde (intro)

By axehappy - axehappy at countrytabs.com

***********************************************************************

h   =   hammer-on                        /   =   slide up

pbr =   pre-bend & release               bh  =   bend & hold

b   =   bend                             \   =   slide down

***********************************************************************


   Acoustic           Lead         Acoustic             Lead

E--3---3-3-3-3-3-3-3---------------3-3-3-3-3-3-3-3-3----------------
B--1h3-3-3-3-3------------8pbr-----3-3-3-3-3-------3--------3b------
G--------------5-3-5----------7bh------------5-4-5-3h4---------2bh--
D------------------------5---------------------------------0--------
A---------------------5/7-------------------------------1/2---------
E-------------------------------------------------------------------

   Acoustic               Lead              Acoustic

E--3-3-3-3-3-3-3----------------------------2/3-3-3-3------
B--3-3-3-3-3-----3-0-2/3-----3--------------2/3-3-3-3-3-0--
G------------5-4-5---1/2-----------------7------------4-0--
D-------------------------3/4-2h4-0------------------------
A-----------------------------------3-2/5------------------
E----------------------------------------------------------


Both played together:


  Acoustic

E-------------3---|     
B-----3-3-1-1-0---|      
G--3/4--4-2-2-0---|      
D-------------0---|      
A-----------------|       
E-----------------|

   Lead  

E-------------10\--|
B-----3-3-1-1-12\--|
G--3/4--4-2-2/12\--|
D------------------|
A------------------|
E------------------|


 Comments (click here to add a non-facebook comment)
Home | FAQs | Privacy | Terms | Advertise | Contact
Top 100 Tab Sites