Give Kudos?
Are you sure you want to give kudos to cmtboy?

Add To Songbook?
Are you sure you want to add this song to your songbook?


2,960 bands | 36,664 songs
Search: Register FREE! | Login
Browse Songs:
Browse Bands:
Tool Panel
Discuss This Song

1 2 3 4 5



Diamond Rio - I Believe (corrected) (Solo)
Album: Completely (2002)
Submitter: cmtboy (0) on 6/4/03 3 comments
Month Views: 172 | Total Views: 5,683
Sound Byte: Listen
Moderator: bcshuffle | Report This Song?
Song Tools

Comment

Songbook

Kudos

Show Chords

Print

Diamond Rio - I Belive (Solo) 


 If you don't know, Jimmy Olander, who is the guitarist for Diamond Rio,
 uses a lot of special equipment to achieve his sound and style of playing.
 This tab uses only standard guitar techniques to try and achieve those
 sounds.....
   
  
     b=bend                      /=slide up
     bbb=triple bend             \=slide down
     h=hammer on


 

 E-----------------------------------------------------|
 B-------------------8-8h10-8--------------------------|
 G-5b-----------8/10----------10~----------------------|
 D----3-3-3~-------------------------------------------|
 A-----------------------------------------------------|
 E-----------------------------------------------------|


 E-----------------------------------------------------|
 B-13br-11h13-11-11-11-11\-----6-8bbbr-6-6/8--4--3-----|
 G-------------------------7-8---------------------3---|
 D-----------------------------------------------------|
 A-----------------------------------------------------|
 E-----------------------------------------------------|
 Comments (click here to add a non-facebook comment)
nice tab. alot easier to play then mine, good job

-RodeoinProStyle | 6/15/2003
Hey thanks, no problem.
-cmtboy | 6/15/2003
hey man what's a double stop great tab by the way

-bwbucs23 | 2/15/2005
Home | FAQs | Privacy | Terms | Advertise | Contact
Top 100 Tab Sites