Give Kudos?
Are you sure you want to give kudos to Deleted Member?

Add To Songbook?
Are you sure you want to add this song to your songbook?


2,960 bands | 36,664 songs
Search: Register FREE! | Login
Browse Songs:
Browse Bands:
Tool Panel
Discuss This Song

1 2 3 4 5



Diamond Rio - I Know How The River Feels (Tab)
Album: Unbelievable (1998)
Submitter: Deleted Member (0) on 12/20/03 1 comment
Month Views: 106 | Total Views: 8,083
Moderator: bcshuffle | Report This Song?
Song Tools

Comment

Songbook

Kudos

Show Chords

Print

I Know How the River Feels
                 by Diamond Rio


-----------------
Artist:Diamond Rio
Song:I Know How the River Feels 
CD:Unbelievable
-----------------

Transcribed by abe linc [srvincarnate at rattlebrain.com]


Capo: 3rd Fret

Interesting Chords: All chords relative to 3rd Fret

  E9      C#m        G#m 
024100   x46654     466444    



Intro:
e-------------------0--------0--------------------------0---------|
B---------0-------4------0-----2\4--0-------0-------0h4---4---0---|
G-------1-------1----------2--------------2-------1---------1-----|
D-----4-------4----------2-----2\4--1---1-------4-----------------| 
A---2------------------0--------------2---------------------------|
E-0---------0---------------------------------0-------------------|

e---------0h2-2\4/2p0-2p0-------------------|
B-----2h4-----------------0h2--2\4-0-----0--|
G---4---------2\4/2--------------------2----|
D-------------------------2----2\4-1--1-----| 
A-0-------------------0--------------2------|
E-------------------------------------------|
                 
Verse 1:
A
They say for everyone here`s that certain one
     B7    E9   
Out there somewhere
A
I`ve been look` hard searching every heart
    B7  E9
Getting nowhere
C#m                G#m              F#m  
Didn`t know I was making my way to you
                                   

Chorus:
                   A      E9
Now I know how the river feels,
         A           E9    
When it reaches the sea.
      A      E9                     C#m             G#m 
And finally finds the place it was always meant to be.
 A             Am            E                     C#                   
Holding fast, home at last, knowing the journies through.
F#m                    B                     E                               
Lying here with you, I know how the river feels.

e----------0---------0h2-2\4/2p0-2p0-------------------|
B------0h4-------2h4-----------------0h2--2\4-0-----0--|
G-----1--------4---------2\4/2--------------------2----|
D---4--------------------------------2----2\4-1--1-----| 
A------------0-------------------0--------------2------|
E-0----------------------------------------------------|
  A                           
Hours of loneliness now make perfect sense
     B7     E9  
Here beside you.
 A                
Tears like waterfall, it was worth them all
     B7  E9       C#m
Just to find you.
                  G#m           F#m     
And yours are the last arms I run to


Chorus:
                   A      E9
Now I know how the river feels,
         A           E9    
When it reaches the sea.
      A      E9                     C#m             G#m
And finally finds the place it was always meant to be.
 A             Am            E                     C#                   
Holding fast, home at last, knowing the journies through.
F#m                    B                       E   A  E                                
Lying here with you, I know how the river feels.
 A            Am             E                     C#
Holding fast, home at last, knowing the journies through
F#m                    B                    E                                        
Lying here with you, I know how the river feels

e----------0---------0h2-2\4/2p0-2p0-------------------|
B------0h4-------2h4-----------------0h2--2\4-0-----0--|
G-----1--------4---------2\4/2--------------------2----|
D---4--------------------------------2----2\4-1--1-----| 
A------------0-------------------0--------------2------|
E-0----------------------------------------------------|

Oh I know how the river feels......
e----------0---------0h2-2\4/2p0-2p0-----0--------------------0--|
B------0h4-------2h4-----------------0h2----2-2-2\4-0-----0---0--|
G-----1--------4---------2\4/2--------------------------2-----1--|
D---4--------------------------------2------2-2-2\4-1--1------4--| 
A------------0-------------------0--------------------2-------2--|
E-0-----------------------------------------------------------0--|
 Comments (click here to add a non-facebook comment)
Damn good job!!!!!!! Keep 'em coming!
-WildCard76 | 12/20/2003
Home | FAQs | Privacy | Terms | Advertise | Contact
Top 100 Tab Sites