Give Kudos?
Are you sure you want to give kudos to Deleted Member?

Add To Songbook?
Are you sure you want to add this song to your songbook?


2,960 bands | 36,664 songs
Search: Register FREE! | Login
Browse Songs:
Browse Bands:
Tool Panel
Discuss This Song

1 2 3 4 5



Diamond Rio - Imagine That (Intro)
Album: Greatest Hits (1997)
Submitter: Deleted Member (0) on 6/3/03
Month Views: 110 | Total Views: 4,052
Moderator: bcshuffle | Report This Song?
Song Tools

Comment

Songbook

Kudos

Show Chords

Print

Imagine That
          by Diamond Rio

Here's the intro, but for all my contributions, constructive criticism
is always welcome.


Intro:
e---------------------------------------------10------------2-------|
B----7---5h7--10--------------------------------------7-----3-3-----|
G----7-7-7--------------7~--------------------9^(11)--^9r7----2^4---|
D-0-------------12\--\9-----9/0-2h4-2p0h2-0-------------------------| 
A-------------------------------------------------------------------|
E-------------------------------------------------------------------|

e--------------------|
B-------3p2----------|
G-----2-------2-\5---|
D-2h4---------2-\5---| 
A-----------4---\7---|
E--------------------|
 Comments (click here to add a non-facebook comment)
Home | FAQs | Privacy | Terms | Advertise | Contact
Top 100 Tab Sites