Give Kudos?
Are you sure you want to give kudos to beaner316?

Add To Songbook?
Are you sure you want to add this song to your songbook?


2,960 bands | 36,664 songs
Search: Register FREE! | Login
Browse Songs:
Browse Bands:
Tool Panel
Discuss This Song

1 2 3 4 5



Diamond Rio - Its All In Your Head (Intro)
Album: IV (1995)
Submitter: beaner316 (0) on 7/30/02
Month Views: 167 | Total Views: 4,297
Moderator: bcshuffle | Report This Song?
Song Tools

Comment

Songbook

Kudos

Show Chords

Print

Key:

h: Hammer	p:  Pull Off	/:  Slide	b: Bend

br: Bend and release	~~~:  Vibrato	x: Muted string

bh: Bend and Hold	rb:  Release Bend
*******************************************************************

Intro:

E------------------------------------------------------------------
B----------1p0-------------------------------------1p0-------------
G------0h2-----2h0---2---2---2---2---2---2-----0h2-----2p0----2----
D--0h2---------------2---2---2---2---2---2-0h2----------------2----
A------------------0---0---0---0---0---0--------------------0------
E------------------------------------------------------------------

E------------------------------------------------------------------
B------------------------------------------1p0---------------------
G----2---2--0---2---2/4---2---2p0------0h2-----2p0-----------------
D----2---2--2---2---2-----2---2----0h2-----------------------------
A--0---0--0---0---0-----0---0--------------------------------------
E------------------------------------------------------------------
 Comments (click here to add a non-facebook comment)
Home | FAQs | Privacy | Terms | Advertise | Contact
Top 100 Tab Sites