Give Kudos?
Are you sure you want to give kudos to Deleted Member?

Add To Songbook?
Are you sure you want to add this song to your songbook?


2,960 bands | 36,664 songs
Search: Register FREE! | Login
Browse Songs:
Browse Bands:
Tool Panel
Discuss This Song

1 2 3 4 5



Diamond Rio - Love A Little Stronger (Tab)
Album: Love a Little Stronger (1994)
Submitter: Deleted Member (0) on 6/2/03
Month Views: 107 | Total Views: 9,755
Moderator: bcshuffle | Report This Song?
Song Tools

Comment

Songbook

Kudos

Show Chords

Print

Love a Little Stronger
               by Diamond Rio

----------------------------
Artist: Diamond Rio
Song: Love a Little Stronger
CD: Greatest Hits
----------------------------

Transcribed by abe linc [srvincarnate at rattlebrain.com]

Performance Notes:Don't feel bad for not getting all those bent notes.  
Jimmy has G AND B benders on his tele, and this song definitely exploits 
that fact to the max.


Intro:

                                       1st time            2nd time
  A   E/G#       F#m     E   D            E                        E
e---0---0--------0-0----0-------------|--------------0-0-|-7---5---4---
B---------7^9^7-----------------------|--------------5---|-------------
G----------------4-4^6----7\6-----1-2-|------1-2-1-4^6-4-|-6^8-4^6-4---
D-7---6-----------------------7-4-----|-0--4-------------|------------- 
A-------------------------------------|------------------|-------------
E-------------------------------------|------------------|-------------

e-------------|
B-------------|
G---2-1-------|
D-2-----2\4---| 
A-------------|
E-------------|
Verse 1:
D               E            A
I don't leave, any room for doubt,
         A/C#      D        
When it comes to you and me, 
e------------------------------0-------|
B--------------------------------7^9^7-|
G--------------------------------------|
D----------------------------0---------| 
A--------------------------------------|
E--------------------------------------|
you know all about the way I feel inside, 

you know how hard I try;

Now that don't mean that I can't...



Chorus:
 A                      F#m
Love a little stronger, dig a little 
        D              E        A 
deeper.
e--------------0-5-----------------|
B------------3-----5^7^5--3^5^3-2--|
G----------2--------------4^6^4-2--|
D------0-4-------------------------| 
A----------------------------------|
E----------------------------------|
A                     F#m
Go a little farther, anything to please you 
      D         E            A/C# 
girl.
e------------0-5-----5p4-2p0------|
B----------3-----5^7---------2----|
G--------2------------------------|
D----0-4--------------------------| 
A---------------------------------|
E---------------------------------|
 A/C#              F#m       E      D                   B7sus   B7
Tonight I'm gonna start all over, show you, girl, what's in my heart.
 D  A/C# Bm         E              A              
Oo__Oo__Oo, gonna love a little stronger.


Instrumental Break:
                                      1st time            2nd time
  A   E/G#       F#m     E   D            E                        E
e---0---0--------0-0----0-------------|--------------0-0-|-7---5---4------------|
B---------7^9^7-----------------------|--------------5---|----------------------|
G----------------4-4^6----7\6-----1-2-|------1-2-1-4^6-4-|-6^8-4^6-4----2-1-----|
D-7---6-----------------------7-4-----|-0--4-------------|------------2-----2\4-| 
A-------------------------------------|------------------|----------------------|
E-------------------------------------|------------------|----------------------|



Verse 2:
 
You tell me, " you're the lucky one."

Might I see things diff'rently, I have just begun

To show you that you mean, ev'rything to me.

I still feel the need, to

Chorus:
 A                      F#m
Love a little stronger, dig a little 
        D              E        A 
deeper.
e--------------0-5-----------------|
B------------3-----5^7^5--3^5^3-2--|
G----------2--------------4^6^4-2--|
D------0-4-------------------------| 
A----------------------------------|
E----------------------------------|
A                     F#m
Go a little farther, anything to please you 
      D         E            A/C# 
girl.
e------------0-5-----5p4-2p0------|
B----------3-----5^7---------2----|
G--------2------------------------|
D----0-4--------------------------| 
A---------------------------------|
E---------------------------------|
 A/C#              F#m       E      D                   B7sus   B7
Tonight I'm gonna start all over, show you, girl, what's in my heart.
 D  A/C# Bm         E              A              
Oo__Oo__Oo, gonna love a little stronger.



Solo:
e--------------------------------------------0-------------0--------0---|
B--------------------------------------------3^5-------------7^9^7----7-|
G-----------1---------------------------------------4-----6-------------|
D---------2---4--2-4-2-----2--0-0--------------------6\7----------------| 
A-----0-4--------------0h4--------4-2-0---------------------------------|
E-0h4-----------------------------------2-0-----------------------------|
              A.H 
e-0-----0--------------------0-----------------7^9--|
B-------------5^7^5------------7^9^7----0-----------|
G---4^6---7-7-------7--4--------------7-------------|
D------------------------7-6---------------7-6------| 
A---------------------------------------------------|
E---------------------------------------------------|


Chorus:
A                       F#m
Love a little stronger, dig a little 
        D      E
deeper.
e-------10-----12----|
B--------------------|
G--------9^11--11^13-|
D--------------------| 
A--------------------|
E--------------------|
A                    F#m
Go a little farther, anything to please you 
     D    E    
girl.
A/C#              F#m         E    D                    B7sus   B7 
Tonight I'm gonna start all over, show you, girl, what's in my heart.
D  A/C# Bm         E                    
Oo__Oo__Oo, gonna love a little. . . 


Pre-Fade:
A                      F#m
Love a little stronger, dig a little 
        D              E        A 
deeper.
e--------------0-5-----------------|
B------------3-----5^7^5--3^5^3-2--|
G----------2--------------4^6^4-2--|
D------0-4-------------------------| 
A----------------------------------|
E----------------------------------|
A                     F#m
Go a little farther, anything to please you 
      D         E            A/C# 
girl.
e------------0-5-----5p4-2p0------|
B----------3-----5^7---------2----|
G--------2------------------------|
D----0-4--------------------------| 
A---------------------------------|
E---------------------------------|
 A/C#              F#m       E      D                   B7sus   B7
Tonight I'm gonna start all over, show you, girl, what's in my heart.
 D  A/C# Bm         E                            
Oo__Oo__Oo, gonna love a little 
   A    E\G#        F#m  E        D                  E
stronger.                                    Gonna love a little
e-------0-------0-------2------------------------------0----0------|
B---------2-------0------------------------------------5----5------|
G-4^(6)-----^6r-----2/1---1h2p1---2---1-2------1-2-----4^6--4------|
D-------------------------------4---4-----0--4-----/6----------7---| 
A------------------------------------------------------------------|
E------------------------------------------------------------------|

   A   E\G#  F#m  E    D                   E             A  E\G#   F#m E D A\C# Bm          
      stronger                    Gonna love a little stronger...  
e--9--5-7--4-5--2-4-0----------------------0----0---|
B--------------------------3---------------5----5---|
G--7\-4-6--2-4--0-2------2--------1-2------4^6--4---|
D----------------------4-----0--4-----4\6-----------| 
A---------------------------------------------------|
E---------------------------------------------------|

 E         A     E\G#          F#m        E     D   
 r...
e--5p4-2-0---0-----------0--------------------------------|
B----------2---0---------------------------------------3--|
G-----------------4^(6)----^6r-2---1------------------2---|
D--------------------------------4---2------2-----0-4-----| 
A-----------------------
 Comments (click here to add a non-facebook comment)
Home | FAQs | Privacy | Terms | Advertise | Contact
Top 100 Tab Sites