Give Kudos?
Are you sure you want to give kudos to axehappy?

Add To Songbook?
Are you sure you want to add this song to your songbook?


2,681 bands | 34,877 songs
Search: Register FREE! | Login
Browse Songs:
Browse Bands:
Tool Panel
Discuss This Song

1 2 3 4 5





Dixie Chicks - Cowboy Take Me Away (Intro)
Submitter: axehappy (98) on 1/14/02 1 comment
Month Views: 18 | Total Views: 19,447
Moderator: p8nter21 | Report This Song?
Song Tools

Comment

Songbook

Kudos

Show Chords

Print

Dixie Chicks - Cowboy Take Me Away (intro)

By axehappy - axehappy at countrytabs.com

***********************************************************************


E---2----2-----2------2----2-----2------2----2----2-------4---
B----4----2---2-2-2----4----2---2-2-2----4----2----2------4---
G--4----3--------3---4----3--------3---4----3-------------6---
D------------4-----------------4-----------------4-----4--6---
A---------------------------------------------------4h6---4---
E-------------------------------------------------------------


E-------2----2-----2------2----2-----2------2----2----2---
B--------4----2---2-2-2----4----2---2-2-2----4----2----2--
G--1-3-4----3--------3---4----3--------3---4----3---------
D----------------4-----------------4-----------------4----
A---------------------------------------------------------
E---------------------------------------------------------


E-----------------------|
B----------4h6----4h6---|
G---------6---6---6-----|
D--------6-----6--6-----|
A--4/6--4---------4-----|
E-----------------------|
 Comments (click here to add a non-facebook comment)
try this maybe it sounds a little better i think.(just for first part.)

With capo on 2

----2-------2--------------------
--4---4---2---2-------------------
--4-------3-----------------------
-----------------4------------
-------------------------------
------------------------------

-fchilds | 1/28/2005
Home | FAQs | Privacy | Terms | Advertise | Contact
Top 100 Tab Sites