Give Kudos?
Are you sure you want to give kudos to saraevansjunkie?

Add To Songbook?
Are you sure you want to add this song to your songbook?


2,732 bands | 35,221 songs
Search: Register FREE! | Login
Browse Songs:
Browse Bands:
Tool Panel
Discuss This Song

1 2 3 4 5



Dixie Chicks - Goodbye Earl (Lead)
Submitter: saraevansjunkie (0) on 4/12/06
Month Views: 1 | Total Views: 4,259
Moderator: p8nter21 | Report This Song?
Song Tools

Comment

Songbook

Kudos

Show Chords

Print

Song: Goodbye Earl
Artist: Dixie Chicks

What I did was I put the normal chords in, but I added the 3/5 for a more accurate intro of the song.

E--------0-----0-----0------0-----------
B-------1-----1-----1------3--3/5-------
G------0-----0-----0------0-------------
D-----2-----2-----2------2--------------
A----3-----3-----3------3---------------
E---0-----0-----0------0----------------

E-------1-----1------0-----0-------3----
B------1-----1------1-----1-------3-----
G-----2-----2------0-----0-------0------
D----3-----3------2-----2-------0-------
A---3-----3------3-----3-------2--------
E--1-----1------0-----0-------3---------
 Comments (click here to add a non-facebook comment)
Home | FAQs | Privacy | Terms | Advertise | Contact
Top 100 Tab Sites