Give Kudos?
Are you sure you want to give kudos to cletus?

Add To Songbook?
Are you sure you want to add this song to your songbook?


2,729 bands | 35,173 songs
Search: Register FREE! | Login
Browse Songs:
Browse Bands:
Tool Panel
Discuss This Song

1 2 3 4 5



Don Williams - I Believe In You Revised (Intro)
Album: 20 Greatest Hits (1990)
Submitter: cletus (0) on 3/17/03
Month Views: 4 | Total Views: 8,384
Sound Byte: Listen
Moderator: Ray Terry | Report This Song?
Song Tools

Comment

Songbook

Kudos

Show Chords

Print

h= hammer on          po= pull off
  b= bend              brh= bend release hold
 br= bend & release      x= muted click   
/ \= slide up or dn

                      Intro/Outro 
              I Believe In You: Don Williams
                        Key= G


E---------------------------------------------------
B---------------------------------------------------
G---------------------------5/7--5/7----------------
D---------5h7-5--------5-7--7/9--7/9----------------
A------5-7-----3--3-5/7-----------------------------
E-3-5/7---------------------------------------------


E-----14-----14----12-----12-------10-----10--------
B---------------------------------------------------
G-12/14-14-14--14--12--12-12-12---11--11-11--11-----
D---------------------------------------------------
A---------------------------------------------------
E---------------------------------------------------


E--8---8----5/7--5/7--------------------------------
B----------------------8----------------------------
G-9-9-9--9--5/7--5/7--------------------------------
D----------------------9----------------------------
A---------------------------------------------------
E---------------------------------------------------
 Comments (click here to add a non-facebook comment)
Home | FAQs | Privacy | Terms | Advertise | Contact
Top 100 Tab Sites