Give Kudos?
Are you sure you want to give kudos to WildCard76?

Add To Songbook?
Are you sure you want to add this song to your songbook?


2,615 bands | 34,295 songs
Search: Register FREE! | Login
Browse Songs:
Browse Bands:
Tool Panel
Discuss This Song

1 2 3 4 5





Doug Supernaw - Reno (Intro)
Submitter: WildCard76 (225) on 11/18/02
Month Views: 23 | Total Views: 3,363
Moderator: phatboy28 | Report This Song?
Song Tools

Comment

Songbook

Kudos

Show Chords

Print

Capo III Fret

E--------0h2------------------------------3--------------
B-------------3-------0h2------------0---------0---------
G-------------------------2--------0---0---------0-------
D-----0--------------------------0-----------------0-----
A-------------------0------------------------------------
E-------------------------------3------------------------

E--------0h2------------------------------3--------------
B-------------3-------0h2------------0---------0---------
G-------------------------2--------0---0---------0-------
D-----0--------------------------0-----------------0-----
A-------------------0------------------------------------
E-------------------------------3------------------------



Christopher R
Knoxville, TN
 Comments (click here to add a non-facebook comment)
Home | FAQs | Privacy | Terms | Advertise | Contact
Top 100 Tab Sites