Give Kudos?
Are you sure you want to give kudos to axehappy?

Add To Songbook?
Are you sure you want to add this song to your songbook?


2,693 bands | 34,919 songs
Search: Register FREE! | Login
Browse Songs:
Browse Bands:
Tool Panel
Discuss This Song

1 2 3 4 5





Dub Miller - Coming Home To You (Solo)
Submitter: axehappy (60) on 3/15/03
Month Views: 9 | Total Views: 2,517
Help! We need a moderator for this artist. | Report This Song?
Song Tools

Comment

Songbook

Kudos

Show Chords

Print

Dub Miller  -  Coming Home To You (solo)

By axehappy  -  axehappy at countrytabs.com


****************************************************************************

/   =   slide up                                \   =   slide down

p   =   pulloff                                 h   =   hammer-on

b   =   bend                                    

****************************************************************************


E-----------------------------------------10p9-------------10-----10-12p10-
B---------------------------------------10----10-12-10---10-----10---------
G------------7-9/11\9p7-9/11\9p7-9/-9h11--------9-----12b----12b-----------
D-----------7--------------------------------------------------------------
A-----5-7/9----------------------------------------------------------------
E--5/7---------------------------------------------------------------------

                                                                violin solo 
E--12/14p12------------------------------------9h10-12-10---10---|
B----------15--15-15-14-12-------------------10----------13b-----|
G------------14-----------14-11-------------9--------------------|
D------------------------------12-14---11h12---------------------|
A------------------------------------12--------------------------|
E----------------------------------------------------------------|


 Comments (click here to add a non-facebook comment)
Home | FAQs | Privacy | Terms | Advertise | Contact
Top 100 Tab Sites