Give Kudos?
Are you sure you want to give kudos to axehappy?

Add To Songbook?
Are you sure you want to add this song to your songbook?


2,680 bands | 34,871 songs
Search: Register FREE! | Login
Browse Songs:
Browse Bands:
Tool Panel
Discuss This Song

1 2 3 4 5





Dwight Yoakam - Buenos Noches From A Lonely Room (Intro)
Submitter: axehappy (132) on 4/3/02
Month Views: 150 | Total Views: 11,150
Moderator: blugraspickr | Report This Song?
Song Tools

Comment

Songbook

Kudos

Show Chords

Print

Dwight Yoakam - Buenos Noches From A Lonely Room (intro)

By axehappy - axehappy at countrytabs.com

This isn't exactly what is played on the cd, this is my version of the
picking. It's pretty close, but its kind of a cross between the album
version and the acoustic version.

***********************************************************************

/   =   slide up                             h   =   hammer-on

***********************************************************************



E-----4-2-0------------------4-2-0---0---0---0----4-2-0--------------
B-------------2---2-----2-------------0---0---------------4---4---4--
G--2/4--2-1----2----------2/4--2-1--1---1---1--2/4--2-1----4---4-----
D------------2---2-----2---------------------------------4---4---4---
A-----------0---------0----------------2----------------2-------2----
E---------------0--0h2-------------0-------0----------------2--------


E-----4-2-0---0-----------0---0-0----|
B---------------------2----0--0-0----|
G--2/4--2-1--1---------2-1-----------|
D--------------------2---------------|
A-------------------0----------------|
E-----------0--0h2h4----0----0-2-4---|
 Comments (click here to add a non-facebook comment)
Home | FAQs | Privacy | Terms | Advertise | Contact
Top 100 Tab Sites