Give Kudos?
Are you sure you want to give kudos to axehappy?

Add To Songbook?
Are you sure you want to add this song to your songbook?


2,396 bands | 31,758 songs
Search: Register FREE! | Login
Browse Songs:
Browse Bands:
Tool Panel
Discuss This Song

1 2 3 4 5





Dwight Yoakam - I Got You (Tab)
Submitter: axehappy (119) on 7/12/02
Month Views: 80 | Total Views: 6,416
Moderator: blugraspickr | Report This Song?
Song Tools

Comment

Songbook

Kudos

Show Chords

Print

Dwight Yoakam  -  I Got You (tab)

By axehappy  -  axehappy at countrytabs.com



F#     =   244322                                 A     =   x02220

E      =   022100                                 B     =   x24442


****************************************************************************************



F#   A   E
INTRO



I've had to buy back damn near everything I own,
       A     
From a little man who's name is Saul
                          E
And has a lot of money to loan.

I drive a beat up '67 Chevrolet, hey hey,
       A
With a torn up seat that pokes a brand new hole
                      E
In my back near every day.

I got a letter from the folks over at Bell,
        A
Just to let me know my next phonecall 
                       E
I can walk outside and yell.
     F#
Hey, I know my life seems a mess,
                                        B
But honey, things to me still look real swell.



                  (FILL 1)            (FILL 2)
                E  
'Cause I've got you, to see me through,
                (FILL 3)                (FILL 4)
               A                   E
Yeah, I've got you, oh to chase my blues.
           (FILL 1)          (FILL 2)          

I've got you to ease my pain,
                  (FILL 3)              (FILL 5)
               A                    E 
Yeah, I've got you, girl to keep me sane.
  (FILL 6)
   F#  
So let 'em do what they wanna do,
       A                                E
'Cause it don't matter long as I've got you.



E   A   E   F#   A   E
INSTRUMENTAL




I've got the landlord breathin' down my neck for rent,
        A  
Oh, but he don't give a damn about my kids 
                       E
Or where the money was spent.

And after all those years of payin' union dues,
   A         
It sure didn't seem to count for much
                       E
When we got our layoff news.

I got a note from the man over at the bank,
         A
Said the next 10 gallons of gas I buy
                     E
Won't be goin' in my tank.
     F#
Hey, I know I might seem near dead,
                                    B
But honey, I think I might just get well.



                  (FILL 1)           (FILL 2)
                E
'Cause I've got you, to see me through,
                 (FILL 3)               (FILL 4)
               A                   E 
Yeah, I've got you, oh to chase my blues.
           (FILL 1)         (FILL 2)
    
I've got you to ease my pain,
                  (FILL 3)               (FILL 4)
                A                    E
Honey, I've got you, girl to keep me sane.
  (FILL 6)
   F#
So let 'em do what they wanna do,
                                           (FILL 5)
       A                                E
'Cause it don't matter long as I've got you.
     (FILL 6)
      F#
Yeah, let 'em go right ahead and sue,
       A                                E   (FILL 7)
'Cause it don't matter long as I've got you.



****************************************************************************************

h   =   hammer-on                               p   =   pulloff

b   =   bend                                    pbr =   pre-bend & release

/   =   slide up                                \   =   slide down

bh  =   bend & hold                             r   =   release bend

br  =   bend & release

****************************************************************************************



INTRO

        F#                 A                    E

E--------------------------------------------------4--4---------|
B--------------------------------------------------3b-3-0-------|
G---------2h3-4---2h3-4-2---2--2p0-----------------------0h1----|
D---2-3-4-2h4-4-4-2h4-4--4--------4p2p0---------2-----------2---|
A--4-----------------------0-----------0-0-0-0------------------|
E---------------------------------------------3b----------------|



FILL 1                         FILL 2


E--7---------|                 E-------------|
B---7pbr-5---|                 B-----5\4-3---|
G------------|                 G-------------|
D------------|                 D--4/6-\5-4---|
A------------|                 A-------------|
E------------|                 E-------------|



FILL 3                         FILL 4


E-----5\4-3---|                E--0-0---|
B-------------|                B---3----|
G--4/6-\5-4---|                G--------|
D-------------|                D--------|
A-------------|                A--------|
E-------------|                E--------|


 
FILL 5                         FILL 6
 

E--0-0--0-----|                E--------------------|
B---3----0----|                B--------------------|
G---------1---|                G--2h3-4--2h3-4-2----|
D-------------|                D--2h4-4--2h4-4--4---|
A-------------|                A--------------------|
E-------------|                E--------------------|



FILL 7


E------------------|
B------------------|
G--0---------------|
D---4-2----2-------|
A-------2/4--------|
E-----------3b-0---|



LEAD SOLO


   E                                   A                  E

                     gradual release
E--7----7-------4--------------------9\7--5------------------------------
B--7pbr--7b-5-3--3pbr--5bh-5r-5r-------------------------7---------------
G------------4--------------------7/9-\7-6----------------7bh-7r-4-0h1---
D-------------------------------------------9pbr-7---7-9b-------------2--
A-------------------------------------------------9-7--------------------
E------------------------------------------------------------------------

   F#              A                      E                             

E----------2-4-4b------7-6-5-----------------------------------------7-------------|
B-----2-3-4------4----5-----7brbr-p5-8-5-----8-9-10p9-10p9-10br-p9-10-8b-8b--------|
G--1/3-------------4/6------------------7/9-9------------------------------9-7-9---|
D---------------------------------------------------------------------------9------|
A----------------------------------------------------------------------------------|
E----------------------------------------------------------------------------------|



 Comments (click here to add a non-facebook comment)
Home | FAQs | Privacy | Terms | Advertise | Contact
Top 100 Tab Sites