Give Kudos?
Are you sure you want to give kudos to matellmon?

Add To Songbook?
Are you sure you want to add this song to your songbook?


2,712 bands | 35,098 songs
Search: Register FREE! | Login
Browse Songs:
Browse Bands:
Tool Panel
Discuss This Song

1 2 3 4 5



Dwight Yoakam - The Curse (Tab)
Album: A Long Way Home (1998)
Submitter: matellmon (77) on 2/11/02
Month Views: 22 | Total Views: 3,305
Moderator: blugraspickr | Report This Song?
Song Tools

Comment

Songbook

Kudos

Show Chords

Print

CHORD CHART
|INTRO |VERSE 1 |VERSE 2 |CHORUS |SOLO |CHORUS |VERSE 3 |CODA |

INTRO:
|E |E |A |A |A |A |

VERSE AND SOLO:
|A |E |A |A |A |E |D |D |
|A |E |D |B |B |A |E |A |A |

CHORUS:
|D |D |D |D |A |A |A |A |
|D |D |D |D |B |B |E |E |


INTRO
  |   |                                              |   |   |   |
  |   |                                              |   |   |   |
|-------|-------------|--------------|-------------|---------------|
|-------|-------------|--------------|-------------|---------------|
|-------|-------------|--------------|-------------|---------------|
|-------|-------------|--------------|-------------|---------------|
|-------|-------------|--------------|-0-----------|-0---0---4---2-|
|-4---2-|-0-----------|-3-(5)--------|---\-------/-|--\/-----------|
                         \/                  T         T
                          B

          ____           ____             ____
  |      |    |  |      |    |    |      |    |    |      |
  |      |    |  |      |    |    |      |    |    |      |
|-------------------------------|----------------------------------|
|-------------------------------|----------------------------------|
|-------------------------------|----------------------------------|
|--------2----2---------2----2--|--------2----2--------------------|
|-0--------------0--------------|-0----------------4------2--------|
|-------------------------------|-----------------/----------------|
                                                   S

VERSE
      _      _         _      _         _      _        _
  |  | | |  | |    |  | | |  | |    |  | | |  | |   |  | | |   |
  |  | | |  | |    |  | | |  | |    |  | | |  | |   |  | | |   |
|----------------|----------------|---------------|----------------|
|----------------|----------------|---------------|----------------|
|----------------|----------------|---------------|----------------|
|----2-2----2-2--|----------------|----2-2----2-2-|----2-2---------|
|-0------0-------|----2-2----2-2--|-0------0------|-0------4---2---|
|----------------|-0------0-------|---------------|----------------|
1. Don't           you              sleep
2. Don't           you              smile
3. Don't           you              try                        To

      _      _         _      _         _      _        _      _
  |  | | |  | |    |  | | |  | |    |  | | |  | |   |  | | |  | |
  |  | | |  | |    |  | | |  | |    |  | | |  | |   |  | | |  | |
|----------------|----------------|---------------|----------------|
|----------------|----------------|---------------|----------------|
|----------------|----------------|----2-2----2-2-|----2-2----2-2--|
|----2-2----2-2--|----------------|-0------0------|-0------0-------|
|-0------0-------|----2-2----2-2--|---------------|----------------|
|----------------|-0------0-------|---------------|----------------|
  Don't       you have    a        single moment's peace      Just
  Don't       you have   happy     thoughts for a  while      'Til
  have          a single           thought that goes by       With-

      _      _         _      _         _      _        _      _
  |  | | |  | |    |  | | |  | |    |  | | |  | |   |  | | |  | |
  |  | | |  | |    |  | | |  | |    |  | | |  | |   |  | | |  | |
|----------------|----------------|---------------|----------------|
|----------------|----------------|---------------|----------------|
|----------------|----------------|----2-2----2-2-|----------------|
|----2-2----2-2--|----------------|-0------0------|----4-4----4-4--|
|-0------0-------|----2-2----2-2--|---------------|-2------2-------|
|----------------|-0------0-------|---------------|----------------|
 walk through the darkness with    fears that are  deep
 teardrops and    sadness both     go    out  of   style
 out     being    haunted       by memories   like mine

      _      _         _      _         _      _        _      _
  |  | | |  | |    |  | | |  | |    |  | | |  | |   |  | | |  | |
  |  | | |  | |    |  | | |  | |    |  | | |  | |   |  | | |  | |
|----------------|----------------|---------------|----------------|
|----------------|----------------|---------------|----------------|
|----------------|----------------|---------------|----------------|
|----4-4----4-4--|----2-2----2-2--|---------------|----2-2----2-2--|
|-2------2-------|-0------0-------|----2-2----2-2-|-0------0-------|
|----------------|----------------|-0------0------|----------------|
              And don't        you even             sleep
              No, don't        you even             smile
              No, don't        you even             try (TO CODA)
 ________________________________   _______________________________
| 1.                               | 2.
          ____    
  |      |    |      |      |        |      |      |      |   
  |      |    |      |      |        |      |      |      |   
|---------------------------------|--------------------------------|
|---------------------------------|--------------------------------|
|-------------------------------*-|--------------------------------|
|--------2----2-----------------*-|--------------------------------|
|-0------------------4------2-----|--0------0------2------4--------|
|---------------------------------|--------------------------------|


CHORUS
      _      _                          _      _        
  |  | | |  | |    |   |   |   |    |  | | |  | |   |   |   |   |
  |  | | |  | |    |   |   |   |    |  | | |  | |   |   |   |   |
|----------------|----------------|---------------|----------------|
|----------------|----------------|---------------|----------------|
|----2-2----2-2--|----------------|----2-2----2-2-|----------------|
|-0------0-------|-0--------------|-0------0------|-0---0----------|
|----------------|-----0---2---4--|---------------|---------4---2--|
|----------------|----------------|---------------|----------------|
    These are the things            I     wish for  you

      _      _         _      _         _      _
  |  | | |  | |    |  | | |  | |    |  | | |  | |   |   |   |   |
  |  | | |  | |    |  | | |  | |    |  | | |  | |   |   |   |   |
|----------------|----------------|---------------|----------------|
|----------------|----------------|---------------|----------------|
|----------------|----------------|---------------|----------------|
|----2-2----2-2--|----2-2----2-2--|----2-2----2-2-|----------------|
|-0------0-------|-0------0-------|-0------0------|-0---0---2---4--|
|----------------|----------------|---------------|----------------|
  Deep   in my     heart  how I     hope  they come true

      _      _                          _      _        
  |  | | |  | |    |   |   |   |    |  | | |  | |   |   |   |   |
  |  | | |  | |    |   |   |   |    |  | | |  | |   |   |   |   |
|----------------|----------------|---------------|----------------|
|----------------|----------------|---------------|----------------|
|----2-2----2-2--|----------------|----2-2----2-2-|----------------|
|-0------0-------|-0--------------|-0------0------|-0--------------|
|----------------|-----0---2---4--|---------------|-----0---0---1--|
|----------------|----------------|---------------|----------------|
  And then you'll know        when bad     turns to worse What it's

      _      _         _      _        _      _       \   _
  |  | | |  | |    |  | | |  | |   |  | | |  | |   |  /  | | |
  |  | | |  | |    |  | | |  | |   |  | | |  | |   |  \  | | |
|----------------|---------------|---------------|-----------------|
|----------------|---------------|---------------|-----------------|
|----------------|---------------|---------------|-----------1-----|
|----4-4----4-4--|----4-4----4-4-|---------------|-------2-4-------|
|-2------2-------|-2------2------|----2-2----2-2-|-----------------|
|-
 Comments (click here to add a non-facebook comment)
Home | FAQs | Privacy | Terms | Advertise | Contact
Top 100 Tab Sites