Give Kudos?
Are you sure you want to give kudos to cguitarpicker?

Add To Songbook?
Are you sure you want to add this song to your songbook?


2,418 bands | 32,320 songs
Search: Register FREE! | Login
Browse Songs:
Browse Bands:
Tool Panel
Discuss This Song

1 2 3 4 5





Earl Scruggs - You Are My Flower (Tab)
Submitter: cguitarpicker (1) on 4/6/03 1 comment
Month Views: 156 | Total Views: 10,364
Help! We need a moderator for this artist. | Report This Song?
Song Tools

Comment

Songbook

Kudos

Show Chords

Print

 This is my first tab.Hope you enjoy it.

 C                      G7   

 E--------------------------------------------------------- 

 B---------------------------------------------------------

 G------------------------------------------0---------------

 D---------2-2-3-2-0----0----0--------0-0-2--0--------------

 A-3-0-2-3----------3--2-0-2------2-3----------2--0-2-3--3--
   
 E--3----------------3----3---3------------------3-----3----

  C                                G7

 E-----0-0-1-0------------------------3-2-1-----------------

 B---1---------3-1-0-1-3-1------------0-0-0--3-0------------

 G-0-----------------------2-0-----0-------------2-0--------

 D-----------------------------2-3-------------------3-2----

 A----------------------------------------------------------

 E----------------------------------------------------------

 G7

 E----------------0-1--------------------
 
 B------------3-3-----3-0-----0-1--------

 G----------0-------------0-2------------

 D-0-0-----------------------------2-----

 A-----2-----------------------------2---

 E-------3-----------------------------3-
 

 Play this first.Then after the chorus play the part that  starts at the second C chord.
































































































































































































































 Comments (click here to add a non-facebook comment)
The original version is done in A. And i think that u need a little more work on makin tabs

-youngbucky87 | 2/16/2006
Home | FAQs | Privacy | Terms | Advertise | Contact
Top 100 Tab Sites